PrimaNota.ru - самый крупный в мире бесплатный архив песенных текстов, аккордов, табулатур и нот


Misc Computer Games - Metroid Prime - Title Theme - бас-таба, видео

Регистрация Запомнить меня
Войти через:  Facebook Google Twitter Vk Yandex Mail.ru

Misc Computer Games - Metroid Prime - Title Theme - бас-таба, видео

Печатать
Просмотров: 98
Уроки эстрадного вокала в Санкт-Петербурге
----------------------------------------------------------------------------------------------------------------
                                  Metroid Prime Title Theme  - Kenji Yamamoto
----------------------------------------------------------------------------------------------------------------
Tabbed by: Giammarco Boscaro
E-mail: gimmy94.boscaro@gmail.com

Tuning: EADG

Intro

(0:00 - 0:13)
G|---------------1-------------------------------------------------------3-------------1-----------------------|
D|-----------------------------1-------------------------------------------------------------------------------|
A|-3-------------------------------------------------------3---------------------------------------------------|
E|-------------------------------------------------------------------------------------------------------------|

(0:13 - 0:16)
G|--------1---0--------------|
D|----------------------3----|
A|--1-3---------3---1-3---3--|
E|---------------------------|


Verse

(0:16 - 0:29)
G|---------------13------------------------------------------------------15------------13----------------------|
D|-----------------------------13------------------------------------------------------------------------------|
A|-15------------------------------------------------------15--------------------------------------------------|
E|-------------------------------------------------------------------------------------------------------------|
(Background)
G|-------1---0--------------|--------1---0--------------|--------1---0--------------|--------1---0-------------|
D|---------------------3----|----------------------3----|----------------------3----|----------------------3---|
A|-1-3---------3---1-3---3--|--1-3---------3---1-3---3--|--1-3---------3---1-3---3--|--1-3---------3---1-3---3-|
E|--------------------------|---------------------------|---------------------------|--------------------------|


Chorus

(0:35 - 0:48)
G|------13---12-------------------------------------------------13---12----------------------------------------|
D|-------------------15---------12-------------------------------------------15---------12---13----------------|
A|-15-------------15----15-13--------15--------------------15-------------15----15-13--------------------------|
E|-------------------------------------------------------------------------------------------------------------|
(Background)
G|-------1---0--------------|--------1---0--------------|--------1---0--------------|--------1---0-------------|
D|---------------------3----|----------------------3----|----------------------3----|----------------------3---|
A|-1-3---------3---1-3---3--|--1-3---------3---1-3---3--|--1-3---------3---1-3---3--|--1-3---------3---1-3---3-|
E|--------------------------|---------------------------|---------------------------|--------------------------|


Bridge

(0:48 - 1:00)
G|---------------1-------------------------------------------------------3-------------1-----------------------|
D|-----------------------------1-------------------------------------------------------------------------------|
A|-3-------------------------------------------------------3---------------------------------------------------|
E|-------------------------------------------------------------------------------------------------------------|
(Background)
G|-------1---0--------------|--------1---0--------------|---------------------------|--------------------------|
D|---------------------3----|----------------------3----|---------------------------|--------------------------|
A|-1-3---------3---1-3---3--|--1-3---------3---1-3---3--|---------------------------|--------------------------|
E|--------------------------|---------------------------|---------------------------|--------------------------|

(1:00 - 1:04)
G|--------1---0--------------|
D|----------------------3----|
A|--1-3---------3---1-3---3--|
E|---------------------------|

Verse
Chorus
Bridge
Verse (Fade)
Добавлено: 14.06.2015
Другие материалы по этой песне:
  • Аккорды и текст

Страница создана 14.06.2015
http://primanota.ru/misc-computer-games/metroid-prime-title-theme-chords.htm
Привет, Гость.
Предлагаем пройти революционный курс по гитаре.
Подарок от PrimaNota.Ru, забирай!