PrimaNota.ru - самый крупный в мире бесплатный архив песенных текстов, аккордов, табулатур и нот


Misc Computer Games - Metal Gear - Jungle - таба, бас-таба, видео

Регистрация Запомнить меня
Войти через:  Facebook Google Twitter Vk Yandex Mail.ru

Misc Computer Games - Metal Gear - Jungle - таба, бас-таба, видео

Печатать
Просмотров: 151
Gtr I (E A D G B E) 
Gtr II (E A D G B E) 

  Q=200
  Gtr I
  H    H      +H     H      H    H      +H     H
|-----------|-------------|-----------|-------------|
|-----------|-------------|-----------|-------------|
|------7----|-(7)---------|------6----|-(6)---------|
|------8----|-(8)---------|------7----|-(7)---------|
|-----------|-------------|-----------|-------------|
|-----------|-------------|-----------|-------------|


  H    H      +H     H      H    H      W
|-----------|-------------|-----------|------|
|-----------|-------------|-----------|------|
|------5----|-(5)---------|------4----|------|
|------6----|-(6)---------|------5----|------|
|-----------|-------------|-----------|------|
|-----------|-------------|-----------|------|


  H    H      +H     H      H    H      +H     H
|-----------|-------------|-----------|-------------|
|-----------|-------------|-----------|-------------|
|------7----|-(7)---------|------6----|-(6)---------|
|------8----|-(8)---------|------7----|-(7)---------|
|-----------|-------------|-----------|-------------|
|-----------|-------------|-----------|-------------|


  H    H      +H     H      H    H      W
|-----------|-------------|-----------|------|
|-----------|-------------|-----------|------|
|------5----|-(5)---------|------4----|------|
|------6----|-(6)---------|------5----|------|
|-----------|-------------|-----------|------|
|-----------|-------------|-----------|------|


    Q  +E  E H      +H     Q  +E  E   Q  +E  E H      H    Q  +E  E
||----------------|-----------------|---------------|--------------|
||o---------------|-----------------|---------------|-5------------|
||--7--(7)-7------|--------7--(7)-7-|-6--(6)-6------|------7--(7)-6|
||-----------5----|-(5)-------------|----------7----|--------------|
||o---------------|-----------------|---------------|--------------|
||----------------|-----------------|---------------|--------------|
|
|   Gtr II
|   Q  +E  E H      +H     Q  +E  E   Q  +E  E H      H    Q  +E  E
||----------------|-----------------|---------------|--------------|
||o---------------|-----------------|---------------|--------------|
||----------------|-----------------|---------------|-6------------|
||--8--(8)-8------|-----------------|-7--(7)-7------|------8--(8)-7|
||o----------5----|-(5)----5--(5)-5-|----------7----|--------------|
||----------------|-----------------|---------------|--------------|


   H     Q   E  E    Q   +E   E  H      W                 Q  Q  E E E E
|-----------------|-------------------|-----------------|-----------------|
|-----------------|-------------------|-----------------|-----------------|
|-----------------|--8---(8)--8-------|-----------------|-----------------|
|-10-----------10-|-------------10----|-8---------------|-----------3-4---|
|-----------11----|-------------------|-----------------|-5--5--5-5-------|
|-------11--------|-------------------|-----------------|-----------------|
|
|  H     Q   E  E    Q   +E   E  H      E E E E E E E E   W
|-----------------|-------------------|-----------------|-----------------|
|-----------------|-------------------|-----------------|-----------------|
|-----------------|-------------------|-----------------|-----------------|
|-----------------|-10--(10)-10-------|-----------5---8-|-----------------|
|-11-----------11-|-------------11----|-----5---5---5---|-----------------|
|--------8--11----|-------------------|-3-6---6---------|-----------------|


  Q  E E H      +H     Q  E E   Q  E E H      H    Q  Q
|-------------|---------------|-------------|-------------|
|-------------|---------------|-------------|-------------|
|--------7----|-(7)-----------|-6--6-6------|-9----7--6---|
|-5--5-5------|--------8--8-8-|--------7----|-------------|
|-------------|---------------|-------------|-------------|
|-------------|---------------|-------------|-------------|
|
| Q  E E H      +H     Q  E E   Q  E E H      H    Q  E E
|-------------|---------------|-------------|-------------|
|-------------|---------------|-------------|-------------|
|-------------|---------------|-------------|-6-----------|
|--------8----|-(8)-----------|-7--7-7------|------8--7-7-|
|-------------|---------------|--------7----|-------------|
|-3--3-3------|--------6--6-6-|-------------|-------------|


  H    E E E E    Q   E  E E E E E   W          Q  Q  E E E E
|--------------|-------------------|----------|---------------|
|--------------|-------------------|----------|---------------|
|-5--------5-8-|-10--10-10-8-5---8-|-7--------|---------------|
|--------6-----|---------------6---|----------|-----------7---|
|------6-------|-------------------|----------|-5--5--5-8---5-|
|--------------|-------------------|----------|---------------|
|
| H    E E E E    Q   E  E E E E E   W          W
|--------------|-------------------|----------|---------------|
|--------------|-------------------|----------|---------------|
|------------5-|--7---7--7-5-----5-|----------|---------------|
|-6------6-----|-------------6-----|-8--------|---------------|
|------6---6---|---------------6---|----------|---------------|
|--------------|-------------------|----------|---------------|


  Q  E E E E Q     E E E E Q   E E   E E Q   E E E E
|----------------|-----------------|-----------------|
|----------------|-----------------|-------------4-7-|
|----------------|-------6---------|-3-6-------4-----|
|--------0-3-----|---3-6---------4-|---------4-------|
|-1----1-----1---|-4-----------4---|-----2-----------|
|----1-----------|---------4-------|-----------------|
|
| H      E E E E   Q   E E E E Q     E E E E Q   E E
|----------------|-----------------|-----------------|
|----------------|-----------------|-----------------|
|----------------|---------3-6-----|-----3-6-------4-|
|------------0-3-|-------4---------|---4---------4---|
|----------1-----|-----4-----------|-4---------------|
|--------1-------|-----------------|-----------------|


  Q   Q  Q  Q    Q  Q  Q  Q    Q  Q  Q  Q    Q  Q  Q  Q
|--------------|-------------|-------------|-------------|
|--------------|-------------|-------------|-------------|
|--------------|-------------|-------------|-------------|
|--------------|-------------|-------------|-------------|
|--------------|-------------|-3--3--3--3--|-3--3--3--3--|
|-4---4--4--4--|-4--4--4--4--|-------------|-------------|
|
| E E Q  Q  Q    Q  Q  Q  Q    Q  Q  Q  Q    Q  Q  Q  Q
|--------------|-------------|-------------|-------------|
|-4------------|-------------|-------------|-------------|
|--------------|-------------|-------------|-------------|
|---6-6--6--6--|-6--6--6--6--|-------------|-------------|
|--------------|-------------|-3-----------|-------------|
|--------------|-------------|----5--5--5--|-5--5--5--5--|


  H    H      Q  +E  Q  +E  Q    H    +Q   Q    Q  +E  Q  +E  Q
|-----------|------------------|--------------|------------------|
|-----------|------------------|--------------|------------------|
|------7----|------------------|--------------|------------------|
|-----------|-5--(5)-7--(7)-8--|-----------5--|--------5--(5)-7--|
|-----------|------------------|-6----(6)-----|-8--(8)-----------|
|-----------|------------------|--------------|------------------|
|
| H    H      Q  +E  Q  +E  Q    H    +Q   Q    Q  +E  Q  +E  Q
|-----------|------------------|--------------|------------------|
|-----------|------------------|--------------|------------------|
|-----------|------------------|--------------|------------------|
|------8----|------------------|--------------|---------------3--|
|-----------|------------------|-----------6--|-3--(3)-6--(6)----|
|-----------|-3--(3)-5--(5)-6--|-6----(6)-----|------------------|


  H    H      Q  +E  Q  +E  Q    H    +Q   Q    H    H
|-----------|------------------|--------------|-----------|
|-----------|------------------|--------------|-----------|
|------7----|------------------|-5----(5)-----|-----------|
|-----------|-5--(5)-7--(7)-8--|-----------8--|-7---------|
|-----------|------------------|--------------|------8----|
|-----------|------------------|--------------|-----------|
|
| H    H      Q  +E  Q  +E  Q    H    +Q   Q    H    H
|-----------|------------------|--------------|-----------|
|-----------|------------------|--------------|-----------|
|-----------|------------------|--------------|-----------|
|------8----|------------------|-7----(7)--5--|-----------|
|-----------|------------------|--------------|-8----5----|
|-----------|-3--(3)-5--(5)-6--|--------------|-----------|


  H    H      Q  +E   Q   +E   Q    H    +Q   Q     Q   +E  Q  +E   Q
|-----------|---------------------|--------------|---------------------|
|-----------|-8--(8)-10--(10)-11--|-----------8--|----------8--(8)-10--|
|------7----|---------------------|-8----(8)-----|-10--(10)------------|
|-----------|---------------------|--------------|---------------------|
|-----------|---------------------|--------------|---------------------|
|-----------|---------------------|--------------|---------------------|
|
| H    H      Q  +E   Q   +E   Q    H    +Q   Q     Q   +E  Q  +E   Q
|-----------|---------------------|--------------|---------------------|
|-----------|---------------------|--------------|---------------------|
|-----------|---------------------|-----------8--|----------8--(8)-10--|
|------8----|-5--(5)--7---(7)--8--|-8----(8)-----|-10--(10)------------|
|-----------|---------------------|--------------|---------------------|
|-----------|---------------------|--------------|---------------------|


  H    H      Q  +E   Q   +E   Q    Q  Q  E E E E   Q  Q  E E E E
|-----------|---------------------|---------------|----------------||
|-----------|-8--(8)-10--(10)-11--|---------------|-------------6-o||
|------7----|---------------------|-------------8-|---------2-5----||
|-----------|---------------------|---------5-8---|-------3--------||
|-----------|---------------------|-6--6--6-------|---------------o||
|-----------|---------------------|---------------|-1--1-----------||
|
| H    H      Q  +E   Q   +E   Q    Q  Q  E E E E   Q  Q  E E E E
|-----------|---------------------|---------------|----------------||
|-----------|---------------------|---------------|---------------o||
|-----------|---------------------|---------------|-----------2-5--||
|------8----|-5--(5)--7---(7)--8--|-----------5-8-|---------3------||
|-----------|---------------------|-6--6----6-----|-------3-------o||
|-----------|---------------------|-------6-------|-1--1-----------||
Добавлено: 15.06.2015
Другие материалы по этой песне:

Страница создана 14.06.2015
http://primanota.ru/misc-computer-games/metal-gear-jungle-chords.htm
Привет, Гость.
Предлагаем пройти революционный курс по гитаре.
Подарок от PrimaNota.Ru, забирай!