PrimaNota.ru - самый крупный в мире бесплатный архив песенных текстов, аккордов, табулатур и нот


Misc Computer Games - Mega Man - Dr Wily Stage Boss - таба, бас-таба, видео

Регистрация Запомнить меня
Войти через:  Facebook Google Twitter Vk Yandex Mail.ru

Misc Computer Games - Mega Man - Dr Wily Stage Boss - таба, бас-таба, видео

Печатать
Просмотров: 119
Gtr I (E A D G B E) 
Gtr II (E A D G B E) 

  Q=145
  Gtr I
  S S S  S S S S  S S S S  S S S S  S   S S S  S S S S  S S S S  S S S S  S
|-------------------------------------|-------------------------------------|
|-------------------------------------|-------------------------------------|
|-9-7-9-10---7-9-10-9-7-9-10---7-9-10-|-9-7-9-10---7-9-10-9-7-9-10---7-9-10-|
|----------7-----------------7--------|----------7-----------------7--------|
|-------------------------------------|-------------------------------------|
|-------------------------------------|-------------------------------------|
|
| Gtr II
| S S S  S S S S  S S S S  S S S S  S   S S S  S S S S  S S S S  S S S S  S
|-------------------------------------|-------------------------------------|
|-------------------------------------|-------------------------------------|
|--------7-----------------7----------|--------7-----------------7----------|
|-7-7-7-----------7-7-7-7-----------7-|-7-7-7-----------7-7-7-7-----------7-|
|----------7-7-7-------------7-7-7----|----------7-7-7-------------7-7-7----|
|-------------------------------------|-------------------------------------|


  S S S  S S S S  S S S S  S S S S  S   S S S  S S S S  S S S S  S S S S  S
|-------------------------------------|----------------------------------------|
|-------------------------------------|----------------------------------------|
|-9-7-9-10---7-9-10-9-7-9-10---7-9-10-|-9-7-9-10---7-9-10-9-7-9-10---7-9-10----|
|----------7-----------------7--------|----------7-----------------7-----------|
|-------------------------------------|----------------------------------------|
|-------------------------------------|----------------------------------------|
|
| S S S  S S S S  S S S S  S S S S  S   S S S  S S S S  S S S S  S S S S  S
|-------------------------------------|----------------------------------------|
|-------------------------------------|----------------------------------------|
|--------7-----------------7----------|--------7-----------------7-------------|
|-7-7-7-----------7-7-7-7-----------7-|-7-7-7-----------7-7-7-7-----------7----|
|----------7-7-7-------------7-7-7----|----------7-7-7-------------7-7-7-------|
|-------------------------------------|----------------------------------------|


   S  S  S  S  S  S  S  S  S  S  S  S  S  S  S  S    S  S  S  S  S  S  S  S  S  S  S  S  S  S  S  S
|-------------------------------------------------|-------------------------------------------------|
|-------------------------------------------------|-------------------------------------------------|
|-14-12-14-15----12-14-15-14-12-14-15----12-14-15-|-14-12-14-15----12-14-15-14-12-14-15----12-14-15-|
|-------------12----------------------12----------|-------------12----------------------12----------|
|-------------------------------------------------|-------------------------------------------------|
|-------------------------------------------------|-------------------------------------------------|
|
|  S  S  S  S  S  S  S  S  S  S  S  S  S  S  S  S    S  S  S  S  S  S  S  S  S  S  S  S  S  S  S  S
|-------------------------------------------------|-------------------------------------------------|
|-----------8-----------------------8-------------|-----------8-----------------------8-------------|
|--7--7--7--------------7--7--7--7--------------7-|--7--7--7--------------7--7--7--7--------------7-|
|--------------8--8--8-----------------8--8--8----|--------------8--8--8-----------------8--8--8----|
|-------------------------------------------------|-------------------------------------------------|
|-------------------------------------------------|-------------------------------------------------|


   S  S  S  S  S  S  S  S  S  S  S  S  S  S  S  S    S  S  S  S  S  S  S  S  S  S  S  S  S  S  S  S
|-------------------------------------------------|----------------------------------------------------|
|-------------------------------------------------|----------------------------------------------------|
|-14-12-14-15----12-14-15-14-12-14-15----12-14-15-|-14-12-14-15----12-14-15-14-12-14-15----12-14-15----|
|-------------12----------------------12----------|-------------12----------------------12-------------|
|-------------------------------------------------|----------------------------------------------------|
|-------------------------------------------------|----------------------------------------------------|
|
|  S  S  S  S  S  S  S  S  S  S  S  S  S  S  S  S    S  S  S  S  S  S  S  S  S  S  S  S  S  S  S  S
|-------------------------------------------------|----------------------------------------------------|
|-----------8-----------------------8-------------|-----------8-----------------------8----------------|
|--7--7--7--------------7--7--7--7--------------7-|--7--7--7--------------7--7--7--7--------------7----|
|--------------8--8--8-----------------8--8--8----|--------------8--8--8-----------------8--8--8-------|
|-------------------------------------------------|----------------------------------------------------|
|-------------------------------------------------|----------------------------------------------------|


Добавлено: 15.06.2015
Другие материалы по этой песне:

Страница создана 14.06.2015
http://primanota.ru/misc-computer-games/mega-man-dr-wily-stage-boss-chords.htm
Привет, Гость.
Предлагаем пройти революционный курс по гитаре.
Подарок от PrimaNota.Ru, забирай!