PrimaNota.ru - самый крупный в мире бесплатный архив песенных текстов, аккордов, табулатур и нот


Misc Computer Games - Mega Man - Dr Wily Stage 1 - таба, бас-таба, видео

Регистрация Запомнить меня
Войти через:  Facebook Google Twitter Vk Yandex Mail.ru

Misc Computer Games - Mega Man - Dr Wily Stage 1 - таба, бас-таба, видео

Печатать
Просмотров: 135
Уроки эстрадного вокала в Санкт-Петербурге
Gtr I (E A D G B E) 
Gtr II (E A D G B E)

  Q=135
  Gtr I
  E E S  E.  E.  E. E   E E S  E.  E.  E. E
|---------------------|---------------------|
|---------------------|---------------------|
|------------6--------|------------6--------|
|---7-7--9-------9--7-|---7-7--9-------9--7-|
|---------------------|---------------------|
|---------------------|---------------------|
|
| Gtr II
| E E S  E.  E.  E. E   E E S  E.  E.  E. E
|---------------------|---------------------|
|---------------------|---------------------|
|---------------------|---------------------|
|---------------------|---------------------|
|---9-9-11--12--11--9-|---9-9-11--12--11--9-|
|---------------------|---------------------|


  E  E  S E.  E. E.  E   E  E  S E.  E. E.  E
|----------------------|-----------------------|
|----------------------|-----------------------|
|----------------------|-----------------------|
|----6--6-7---9--7---6-|----6--6-7---9--7---6--|
|----------------------|-----------------------|
|----------------------|-----------------------|
|
| E  E  S E.  E. E.  E   E  E  S E.  E. E.  E
|----------------------|-----------------------|
|----------------------|-----------------------|
|----------------------|-----------------------|
|----------------------|-----------------------|
|---------9--11--9-----|---------9--11--9------|
|---12-12-----------12-|---12-12-----------12--|


  E  E  S  E. E.  E.  E   E  E  S  E. E.  E.  E
|-----------------------|-----------------------|
|-----------------------|-----------------------|
|-----------------------|-----------------------|
|----------6--7---6-----|----------6--7---6-----|
|----9--9-------------9-|----9--9-------------9-|
|-----------------------|-----------------------|
|
| E  E  S  E. E.  E.  E   E  E  S  E. E.  E.  E
|-----------------------|-----------------------|
|-----------------------|-----------------------|
|-----------------------|-----------------------|
|-----------------------|-----------------------|
|-------------9---------|-------------9---------|
|---10-10-12-----12--10-|---10-10-12-----12--10-|


  E E S  E. E.  E. E   E E S  E. E.  E. E
|--------------------|-----------------------|
|--------------------|-----------------------|
|--------------------|-----------------------|
|-----------6--------|-----------6-----------|
|---8-8--9------9--8-|---8-8--9------9--8----|
|--------------------|-----------------------|
|
| E E S  E. E.  E. E   E E S  E. E.  E. E
|--------------------|-----------------------|
|--------------------|-----------------------|
|--------------------|-----------------------|
|--------------------|-----------------------|
|-----------8--------|-----------8-----------|
|---9-9-11-----11--9-|---9-9-11-----11--9----|


  E E S E. E. E. E     E  E S E. E.   E.   E
|-------------------|------------------------|
|-------------------|------------------------|
|----------6--------|------------6-----------|
|---7-7-9-----9--7--|-----7-7-9-------9----7-|
|-------------------|------------------------|
|-------------------|------------------------|
|
| ~~~~~~~~~~~~~~~~~~~~~~~~
| W                   +H         E  E    E E
|-------------------|------------------------|
|-------------------|------------------------|
|-------------------|------------------------|
|-7-----------------|-(7)-----------7------6-|
|-------------------|------------------------|
|-------------------|------------------------|


   E  E S E. E. E. E    E E S E. E.   E.   E
|---------------------|------------------------|
|---------------------|------------------------|
|---------------------|------------------------|
|-----6-6-7--9--7--6--|---6-6-7--9----7----6---|
|---------------------|------------------------|
|---------------------|------------------------|
|
|  ~~~~~~~~~~~~~~~~~~~~~~~
| +W                    H        E  E    E E
|---------------------|------------------------|
|---------------------|------------------------|
|---------------------|------------------------|
|-(6)-----------------|-6-----------6----------|
|---------------------|--------------------9---|
|---------------------|------------------------|


   E  E S E. E. E. E     E  E S E. E.   E.   E
|---------------------|------------------------|
|---------------------|------------------------|
|---------------------|------------------------|
|---------6--7--6-----|---------6--7----6------|
|-----9-9----------9--|-----9-9--------------9-|
|---------------------|------------------------|
|
|  ~~~~~~~~~~~~~~~~~~~~~~~~~
| +W                    +H         E  E    E E
|---------------------|------------------------|
|---------------------|------------------------|
|---------------------|------------------------|
|---------------------|------------------------|
|-(9)-----------------|-(9)-----------9------8-|
|---------------------|------------------------|


   E  E S E. E. E. E     E  E S E. E. E. E
|---------------------|----------------------|
|---------------------|----------------------|
|---------------------|----------------------|
|------------6--------|------------6---------|
|-----8-8-9-----9--8--|-----8-8-9-----9--8---|
|---------------------|----------------------|
|
|  ~~~~~~~~~~~~~~~~~~~~~~~~~
| +W                    +H         H
|---------------------|----------------------|
|---------------------|----------------------|
|---------------------|----------------------|
|---------------------|----------------------|
|-(8)-----------------|-(8)------------------|
|---------------------|----------------------|


  S S S S S S S S S S S S S S S S    S  S  S  S S S  S  S  S  S  S S  S  S  S S
|---------------------------------|---------------------------------------------|
|---------------------------------|---------------------------------------------|
|---------------------------------|---------------------------------------------|
|---7---7---7---7---7---7---7---7-|---------------------------------------------|
|---------------------------------|-------------8-9-10-11-12-11-10-9------------|
|-5---5---5---5---5---5---5---5---|--9-10-11-12----------------------12-11-10-9-|
|
| E   E   E   E   E   E   E   E      E     E    Q          H
|---------------------------------|---------------------------------------------|
|---------------------------------|---------------------------------------------|
|---------------------------------|---------------------------------------------|
|---------------------------------|---------------------------------------------|
|-9---9---9---9---9---9---9---9---|-11------------------------------------------|
|---------------------------------|---------------------------------------------|


  S S S S S S S S  S  S  S  S  S  S  S S    W
|----------------------------------------|-------------------------------|
|----------------------------------------|-------------------------------|
|----------------------------------------|-------------------------------|
|---9---9---9---9----10----10----10----9-|-11----------------------------|
|----------------------------------------|-------------------------------|
|-7---7---7---7----8-----8-----8-----8---|-------------------------------|
|
| E   E   E   E    E     E     E     E      E E Q  S S  S S  S S  S  S
|----------------------------------------|-------------------------------|
|----------------------------------------|-------------------------------|
|----------------------------------------|-------------------------------|
|-9---9---9---9---10----10----10----10---|-11-------------9----9-12-11---|
|----------------------------------------|-----------8-11---11-----------|
|----------------------------------------|---------9---------------------|


Добавлено: 15.06.2015
Другие материалы по этой песне:

Страница создана 14.06.2015
http://primanota.ru/misc-computer-games/mega-man-dr-wily-stage-1-chords.htm
Привет, Гость.
Предлагаем пройти революционный курс по гитаре.
Подарок от PrimaNota.Ru, забирай!