PrimaNota.ru - самый крупный в мире бесплатный архив песенных текстов, аккордов, табулатур и нот


Misc Computer Games - Mega Man - Dr Wily Stage 3 - таба, бас-таба, видео

Регистрация Запомнить меня
Войти через:  Facebook Google Twitter Vk Yandex Mail.ru

Misc Computer Games - Mega Man - Dr Wily Stage 3 - таба, бас-таба, видео

Печатать
Просмотров: 79
Уроки эстрадного вокала в Санкт-Петербурге
Gtr I (E A D G B E) 
Gtr II (E A D G B E) 

  Gtr I
                                        |-3-| |-3-|
  W          W          W          H    E E E E E E
|----------|----------|----------|------------------|
|----------|----------|----------|------------------|
|----------|----------|----------|----------------8-|
|----------|----------|----------|------------5-8---|
|----------|----------|----------|--------5-8-------|
|-3--------|-4--------|-5--------|-6----6-----------|
|
| Gtr II
|                                       |-3-| |-3-|
| W          W          W          H    E E E E E E
|----------|----------|----------|------------------|
|----------|----------|----------|----------------9-|
|----------|----------|----------|--------------7---|
|----------|----------|----------|----------6-8-----|
|-5--------|-6--------|-7--------|-8----5-8---------|
|----------|----------|----------|------------------|


  W          W          W           W
|----------|----------|----------|-------|
|----------|----------|----------|-------|
|----------|----------|----------|-------|
|-5--------|-6--------|-7--------|--8----|
|----------|----------|----------|-------|
|----------|----------|----------|-------|
|
| W          W          W           W
|----------|----------|----------|-------|
|----------|----------|----------|-------|
|-7--------|-8--------|-9--------|-10----|
|----------|----------|----------|-------|
|----------|----------|----------|-------|
|----------|----------|----------|-------|


  H    H      H    H      H    H      H    H
|-----------|-----------|-----------|-----------|
|-----------|-----------|-----------|-----------|
|-----------|-3---------|-----------|-----------|
|-5----3----|------6----|-----------|-----------|
|-----------|-----------|-----------|-1---------|
|-----------|-----------|-3----1----|------4----|
|
| H    H      H    H      H    H      H    H
|-----------|-----------|-----------|-----------|
|-----------|-6---------|-----------|-----------|
|-7----5----|------8----|-----------|-----------|
|-----------|-----------|-----------|-3---------|
|-----------|-----------|-5----3----|------6----|
|-----------|-----------|-----------|-----------|
Добавлено: 15.06.2015
Другие материалы по этой песне:

Страница создана 14.06.2015
http://primanota.ru/misc-computer-games/mega-man-dr-wily-stage-3-chords.htm
Привет, Гость.
Предлагаем пройти революционный курс по гитаре.
Подарок от PrimaNota.Ru, забирай!