PrimaNota.ru - самый крупный в мире бесплатный архив песенных текстов, аккордов, табулатур и нот


Misc Computer Games - Legend Of Zelda Wind Waker - Outset Island - бас-таба, видео

Регистрация Запомнить меня
Войти через:  Facebook Google Twitter Vk Yandex Mail.ru

Misc Computer Games - Legend Of Zelda Wind Waker - Outset Island - бас-таба, видео

Печатать
Просмотров: 136
legend of zelda: wind waker - outset island

Tabbed by: Ashy (XxThreeCheersxX)
E-mail: burdickash@gmail.com

Tuning: Standard

Note: this is the rhythm section, not the melody.

I've been working on this for a while, I hope you enjoy it!  Happy playing!

Part I
G|---------------------------------------------|
D|---11----11---11----11---11----11---11----11-|
A|---------------------------------------------|
E|-9----------9----------9----------9----------|

Part II (where the melody comes in
G|--------------10---------11----------13--------10----------15----------------------13-------|
D|---11---------------11---------11--------------------11----------------13-------------------|
A|---------11-8----------9----------11-------8-8----------13-------13-------------11-------11-| x 2
E|-9------------------------------------------------------------------11-------11-------------|

Part III
G|---11---------11---------------------------10---------10-------------------------|
D|---------11---------11---9--------9--------------11---------11---8--------8------|
A|-9----------9-----------------9--------9-8----------8-----------------8--------8-|
E|-----------------------7--------7------------------------------6--------6--------|

G|----------------------------------------------------13----------13-------------------------| (yes, this is
D|----13----------13----------13----------13----------------13----------13---6--------6------|  a massive leap,
A|----------13----------13----------13----------13-11----------11-----------------6--------6-|  but i'm not sure
E|-11----------11----------11----------11----------------------------------4--------4--------|  what else to do)

Part I x 4

Now repeat as many times as you like!


| /  slide up
| \  slide down
| h  hammer-on
| p  pull-off
| ~  vibrato
| +  harmonic
| x  Mute note
===============================================================================
Добавлено: 14.06.2015
Другие материалы по этой песне:
  • Аккорды и текст

Страница создана 14.06.2015
http://primanota.ru/misc-computer-games/legend-of-zelda-wind-waker-outset-island-chords.htm
Привет, Гость.
Предлагаем пройти революционный курс по гитаре.
Подарок от PrimaNota.Ru, забирай!