PrimaNota.ru - самый крупный в мире бесплатный архив песенных текстов, аккордов, табулатур и нот


Misc Computer Games - Legend Of Zelda Majoras Mask - Song Of Healing - бас-таба, видео

Регистрация Запомнить меня
Войти через:  Facebook Google Twitter Vk Yandex Mail.ru

Misc Computer Games - Legend Of Zelda Majoras Mask - Song Of Healing - бас-таба, видео

Печатать
Просмотров: 109
Legend of Zelda: Majoras Mask - Song of Healing

Tabbed by: Ashy (XxThreeCheersxX)
E-mail: burdickash@gmail.com

Tuning: Standard

G|---------------------------------------|
D|-9--7-----9--7-----9--7----------------|
A|-------8--------8--------7-5-7~--------| x 2
E|---------------------------------------|

G|---------------------------------------|
D|---------------------------------------|
A|-8--------8--------8--7----------------|
E|----8--7-----8--7--------8-5-8~--------|

G|---------------------------------------|
D|---------------------------------------|
A|-8--------8--------8--7--7--10~--------|
E|----8--7-----8--7----------------------|

G|----------7--7--7-----------5-----------------3--3--3--------2--------|
D|-7--7--7-----------5--5--5-----5~----3--3--3-----------2--0-----2~----|
A|----------------------------------------------------------------------|
E|----------------------------------------------------------------------|

G|----------7--7--7-----------5--------------------5--7--------7--9~--------|
D|-7--7--7-----------5--5--5-----5~-------5--7--8--------7--9---------------|
A|-------------------------------------8------------------------------------|
E|--------------------------------------------------------------------------|

Happy playing!

| /  slide up
| \  slide down
| h  hammer-on
| p  pull-off
| ~  vibrato
| +  harmonic
| x  Mute note
===============================================================================
Добавлено: 14.06.2015
Другие материалы по этой песне:
  • Аккорды и текст

Страница создана 14.06.2015
http://primanota.ru/misc-computer-games/legend-of-zelda-majoras-mask-song-of-healing-chords.htm
Привет, Гость.
Предлагаем пройти революционный курс по гитаре.
Подарок от PrimaNota.Ru, забирай!