PrimaNota.ru - самый крупный в мире бесплатный архив песенных текстов, аккордов, табулатур и нот


Misc Computer Games - The Last Of Us Theme - таба, видео

Регистрация Запомнить меня
Войти через:  Facebook Google Twitter Vk Yandex Mail.ru

Misc Computer Games - The Last Of Us Theme - таба, видео

Печатать
Просмотров: 177
Уроки эстрадного вокала в Санкт-Петербурге
                                The Last of Us - Main Theme                                 


Music by: Gustavo Santaolalla
Tabbed by: Isac Saleh
Difficulty: Easy/Medium
Standard tuning: EADGBE



      E    E    E    E    E    E    E    E    E    E    E    E    
E||--------------------------------------------------------------|
B||--(8)------------(8)------------(8)------------(8)------------|
G||------------(9)------------(9)------------(9)------------(9)--|
D||-------(9)------------(9)------------(9)------------(9)-------|
A||--------------------------------------------------------------|
E||--------------------------------------------------------------|


   E    E    E    E    E    E    E    E    E    E    E    E    
--------------------------------------------------------------|
--(8)------------(8)------------(8)------------(8)------------|
------------(9)------------(9)------------(9)------------(9)--|
-------(9)------------(9)------------(9)------------(9)-------|
--------------------------------------------------------------|
--------------------------------------------------------------|


   E    E    E    E    E    E    E    E    E    E    E    E    
--------------------------------------------------------------|
--(8)------------(8)------------(8)------------(8)------------|
------------(9)------------(9)------------(9)------------(9)--|
-------(9)------------(9)------------(9)------------(9)-------|
--------------------------------------------------------------|
--------------------------------------------------------------|


   E    E    E    E    E    E    E    E    E    E   Q     
---------------------------------------------------------|
--(8)------------(8)------------(8)------------(8)--L----|
------------(9)------------(9)------------(9)------------|
-------(9)------------(9)------------(9)-----------------|
---------------------------------------------------------|
---------------------------------------------------------|


  E   E    E   E   E    E    E   E    E   E   E    E    
---------------0---------------------------------------|
--8-------------------------10------------7------------|
----------(9)----------(9)-----------(9)----------(9)--|
-----(9)----------(9)-----------(9)----------(9)-------|
-------------------------------------------------------|
--0----------------------------------------------------|


  E   E    E    E    E    E    E    E    E    E    E    E    
------------------------------------------------------------|
--8------------(8)------------(8)------------(8)------------|
----------(9)------------(9)------------(9)------------(9)--|
-----(9)------------(9)------------(9)------------(9)-------|
------------------------------------------------------------|
------------------------------------------------------------|


  E   E    E   E   E    E    E   E    E   E   E    E    
---------------0---------------------------------------|
--8-------------------------10------------7------------|
----------(9)----------(9)-----------(9)----------(9)--|
-----(9)----------(9)-----------(9)----------(9)-------|
-------------------------------------------------------|
--0----------------------------------------------------|


   S   S  E    E     E    E    E     E    E    E     E    E    E    
-------------------------------------------------------------------|
--10S-12-----------(12)------------(12)------------(12)------------|
--------------(9)-------------(9)-------------(9)-------------(9)--|
---------(9)-------------(9)-------------(9)-------------(9)-------|
-------------------------------------------------------------------|
-------------------------------------------------------------------|


  S   S  E   E   E   E    E    E   E    E   E   E    E    
-----------------0---------------------------------------|
--8h-10p-8--------------------10------------7------------|
------------(9)----------(9)-----------(9)----------(9)--|
--------------------(9)-----------(9)----------(9)-------|
---------------------------------------------------------|
--7------------------------------------------------------|


  E   E    E    E    E    E    E    E    E    E    E    E    
------------------------------------------------------------|
--8------------(8)------------(8)------------(8)------------|
----------(9)------------(9)------------(9)------------(9)--|
-----(9)------------(9)------------(9)------------(9)-------|
------------------------------------------------------------|
--0---------------------------------------------------------|


   E   E    E    E   E    E   S   S  E  E  E   E   E   
-------------------------------------------0----------|
--11------------10------------8h-10p-8----------------|
-----------(9)-----------(9)------------9----------7--|
------(9)-----------(9)-----------------------(9)-----|
------------------------------------------------------|
------------------------------------------------------|


  E   E    E    E    E    E    E    E    E    E    E    E    
---------------(0)------------(0)------------(0)------------|
------------------------------------------------------------|
--9-------(9)------------(9)------------(9)------------(9)--|
-----(9)------------(9)------------(9)------------(9)-------|
------------------------------------------------------------|
----------------------------------------------7-------------|


   E    E    E    E    E    E    E    E    E    E    E    E    
--(0)------------(0)------------(0)------------(0)------------|
--------------------------------------------------------------|
------------(9)------------(9)------------(9)------------(9)--|
-------(9)------------(9)------------(9)------------(9)-------|
---7----------------------------------------------------------|
--------------------------------------------------------------|


   E    E    E    E    E    E    E    E    E   E   E    E    
--(0)------------(0)------------(0)------------7------------|
------------------------------------------------------------|
------------(9)------------(9)------------(9)----------(9)--|
-------(9)------------(9)------------(9)----------(9)-------|
------------------------------------------------------------|
---0--------------------------------------------------------|


   E   E    E    E   E    E    E   E    E    E   E    E    
--10------------10------------10------------10------------|
----------------------------------------------------------|
-----------(7)-----------(7)-----------(7)-----------(7)--|
------(9)-----------(9)-----------(9)-----------(9)-------|
----------------------------------------------------------|
---7------------------------------------------------------|


  E   E    E   E   E    E   E   E    E   E   E    E    
--9------------9------------9------------9------------|
------------------------------------------------------|
----------(6)----------(6)----------(6)----------(6)--|
-----(7)----------(7)----------(7)----------(7)-------|
--0---------------------------------------------------|
------------------------------------------------------|


  E   E    E   E   E    E   E   E    E   E   E    E    
--8------------8------------8------------8------------|
------------------------------------------------------|
----------(5)----------(5)----------(5)----------(5)--|
-----(7)----------(7)----------(7)----------(7)-------|
--0---------------------------------------------------|
------------------------------------------------------|


  E   E    E   E   E    E   E   E    E   E   E    E    
--7------------7------------7------------7------------|
------------------------------------------------------|
----------(4)----------(4)----------(4)----------(4)--|
-----(5)----------(5)----------(5)----------(5)-------|
------------------------------------------------------|
--0---------------------------------------------------|


   E   E    E    E   E    E    E   E    E    S   S   Q     
--10------------10------------10------------10S-12S-10----|
----------------------------------------------------------|
-----------(7)-----------(7)-----------(7)----------------|
------(9)-----------(9)-----------(9)---------------------|
----------------------------------------------------------|
---7------------------------------------------------------|


  E   E    E   E   E    E   E   E    E   E   E    E    
--9------------9------------9------------9------------|
------------------------------------------------------|
----------(6)----------(6)----------(6)----------(6)--|
-----(7)----------(7)----------(7)----------(7)-------|
--0---------------------------------------------------|
------------------------------------------------------|


  E   E    E   E   E    E   E   E    E   E   E    E    
--8------------8------------8------------8------------|
------------------------------------------------------|
----------(5)----------(5)----------(5)----------(5)--|
-----(7)----------(7)----------(7)----------(7)-------|
--0---------------------------------------------------|
------------------------------------------------------|


  E   E    E   E   E    E   E   E    E   S  S  Q     
--7------------7------------7------------7p-3p-0----|
----------------------------------------------------|
----------(4)----------(4)----------(4)-------------|
-----(5)----------(5)----------(5)------------------|
----------------------------------------------------|
--0-------------------------------------------------|


                                         ^                                  
  E  E  E  E  E  E  E  E  E  E  E  E     Q.     E  E  E  E  E  E  E  E  E   
--5--------5--------5--------5--L-----|--5------5--------5--------5--------|
--------------------------------------|--2---------------------------------|
--------2--------2--------2--4--L--2--|--2------------2--------2--------2--|
-----2--------2--------2--------2-----|--2---------2--------2--------2-----|
--0-----------------------------------|--0---------------------------------|
--------------------------------------|--0---------------------------------|


  Q.     Q.     S  S  Q    Q.      
--3------2------0h-2p-0-----------|
---------------------------3------|
--0-------------------------------|
--2------4------2----------0------|
----------------------------------|
----------------------------------|


  S  Q    S  E    E    E    E    E    E    E    E    E    
--1S-2----L-(2)------------(2)------------(2)------------|
----------------------(1)------------(1)------------(1)--|
-----------------(2)------------(2)------------(2)-------|
--2S-4----L------------------------------------------L---|
---------------------------------------------------------|
---------------------------------------------------------|


   ^                                                   
   Q.       E    E    E    E    E    E   E   E    E    
--(2)------(2)------------(2)-------(0)--2-------(0)--|
--(1)----------------(1)-------(1)----------(1)-------|
--(2)-----------(2)-----------------------------------|
------------------------------------------------------|
------------------------------------------------------|
------------------------------------------------------|


  Q     E  E   E    E    E    E    E    E    E    E    
--3\----L--0-------(0)--(0)-------(0)--(0)-------(0)--|
--------------(0)------------(0)------------(0)-------|
------------------------------------------------------|
--5S-------2----------------------------L-------------|
------------------------------------------------------|
-----------0------------------------------------------|


   E    E    E    E   W                 
--(0)-------(0)--(0)--L----------------|
-------(0)-----------------------------|
---------------------------------------|
---L--------------L--------------------|
---------------------------------------|
---------------------------------------|


  E   E    E   E   E    E    E   E    E   E   E    E    
---------------0---------------------------------------|
--8-------------------------10------------7------------|
----------(9)----------(9)-----------(9)----------(9)--|
-----(9)----------(9)-----------(9)----------(9)-------|
-------------------------------------------------------|
--0----------------------------------------------------|


  E   E    E    E    E    E    E    E    E    E    E    E    
------------------------------------------------------------|
--8------------(8)------------(8)------------(8)------------|
----------(9)------------(9)------------(9)------------(9)--|
-----(9)------------(9)------------(9)------------(9)-------|
------------------------------------------------------------|
------------------------------------------------------------|


  E   E    E   E   E    E    E   E    E   E   E    E    
---------------0---------------------------------------|
--8-------------------------10------------7------------|
----------(9)----------(9)-----------(9)----------(9)--|
-----(9)----------(9)-----------(9)----------(9)-------|
-------------------------------------------------------|
--0----------------------------------------------------|


   S   S  E    E     E    E    E     E    E    E     E    E    E    
-------------------------------------------------------------------|
--10S-12-----------(12)------------(12)------------(12)------------|
--------------(9)-------------(9)-------------(9)-------------(9)--|
---------(9)-------------(9)-------------(9)-------------(9)-------|
-------------------------------------------------------------------|
-------------------------------------------------------------------|


  S   S  E   E   E   E    E    E   E    E   E   E    E    
-----------------0---------------------------------------|
--8h-10p-8--------------------10------------7------------|
------------(9)----------(9)-----------(9)----------(9)--|
--------------------(9)-----------(9)----------(9)-------|
---------------------------------------------------------|
--7------------------------------------------------------|


  E   E    E    E    E    E    E    E    E    E    E    E    
------------------------------------------------------------|
--8------------(8)------------(8)------------(8)------------|
----------(9)------------(9)------------(9)------------(9)--|
-----(9)------------(9)------------(9)------------(9)-------|
------------------------------------------------------------|
--0---------------------------------------------------------|


   E   E    E    E   E    E   S   S  E   E   E   E   E   
---------------------------------------------0----------|
--11------------10------------8h-10p-8------------------|
-----------(9)-----------(9)------------(9)----------7--|
------(9)-----------(9)-------------------------(9)-----|
--------------------------------------------------------|
--------------------------------------------------------|


  E   E    E    E    E    E    E    E    E    E    E    E    
---------------(0)------------(0)------------(0)------------|
------------------------------------------------------------|
--9-------(9)------------(9)------------(9)------------(9)--|
-----(9)------------(9)------------(9)------------(9)-------|
------------------------------------------------------------|
----------------------------------------------0-------------|


   E    E    E    E    E    E    E    E    E    E    E    E    
--(0)------------(0)------------(0)------------(0)------------|
--------------------------------------------------------------|
------------(9)------------(9)------------(9)------------(9)--|
-------(9)------------(9)------------(9)------------(9)-------|
--------------------------------------------------------------|
------------------------------------------------7-------------|


     ^                                    ^                                
     Q.     E   E  E   Q.     Q    E      Q.     E   E  E   Q.     Q.      
|-------------------------------------|-----------------------------------|
|----8----------------12-----------8--|---8----------------12------8------|
|*---9------9------9----------9-------|---9------9------9-----------------|
|*--10---------10---------------------|--10---------10--------------------|
|---10--------------------------------|--10-------------------------------|
|----8--------------------------------|---8-------------------------------|


   ^                                  
   Q.      E   E  E   Q.      Q.      
-------------------------------------|
---------------------12--------------|
--12------12-----------------12------|
--12----------12--L------------------|
--10---------------------------------|
--10---------------------------------|


   ^                                           ^                               
   Q.      E   E  E   Q     E   E   Q          Q    E  E  E  E   H.            
------------------------------------------||--------------------10------------|
---------------------12-------------------||---7-------7-----7----------------|
--12------12-------------------12--------*||*--7----7-----7-------------------|
--12----------12--L--------12------12----*||*--9------------------------------|
--10--------------------------------------||---9------------------------------|
--10--------------------------------------||---7------------------------------|


  ^                                  ^                              
  Q    E  E  E  E   Q.     Q.        Q    E  E  E  E  H.            
-------------------10-------------|-------------------7------------|
--7-------7-----7----------7------|--8-----------------------------|
--7----7-----7--------------------|--9-------9-----9---------------|
--9-------------------------------|--9----9-----9------------------|
--9-------------------------------|--7-----------------------------|
--7-------------------------------|--7-----------------------------|


  ^                                   ^                                  
  Q.     E  E  E  Q.     Q.           Q.      E   E  E   Q.      Q.      
------------------7--------------||-------------------------------------|
--8----------------------8-------||---------------------12--------------|
--9------9-----9----------------*||--12------12-----------------12------|
--9---------9--L----------------*||--12----------12--L------------------|
--7------------------------------||--10---------------------------------|
--7------------------------------||--10---------------------------------|


   ^                                   
   Q     E   E   E   E   H.            
--------------------------------------|
--------------------------------------|
--12--------12------12--12------------|
--12----12------12------12------------|
--10--------------------10------------|
--10--------------------10------------|


  E   E    E   E   E    E    E   E    E   E   E    E    
---------------0---------------------------------------|
--8-------------------------10------------7------------|
----------(9)----------(9)-----------(9)----------(9)--|
-----(9)----------(9)-----------(9)----------(9)-------|
-------------------------------------------------------|
--0----------------------------------------------------|


  E   E    E    E    E    E    E    E    E    E    E    E    
------------------------------------------------------------|
--8------------(8)------------(8)------------(8)------------|
----------(9)------------(9)------------(9)------------(9)--|
-----(9)------------(9)------------(9)------------(9)-------|
------------------------------------------------------------|
------------------------------------------------------------|


  E   E    E   E   E    E    E   E    E   E   E    E    
---------------0---------------------------------------|
--8-------------------------10------------7------------|
----------(9)----------(9)-----------(9)----------(9)--|
-----(9)----------(9)-----------(9)----------(9)-------|
-------------------------------------------------------|
--0----------------------------------------------------|


   S   S  E    E     E    E    E     E    E    E     E    E    E    
-------------------------------------------------------------------|
--10S-12-----------(12)------------(12)------------(12)------------|
--------------(9)-------------(9)-------------(9)-------------(9)--|
---------(9)-------------(9)-------------(9)-------------(9)-------|
-------------------------------------------------------------------|
-------------------------------------------------------------------|


  S   S  E   E   E   E    E    E   E    E   E   E    E    
-----------------0---------------------------------------|
--8h-10p-8--------------------10------------7------------|
------------(9)----------(9)-----------(9)----------(9)--|
--------------------(9)-----------(9)----------(9)-------|
---------------------------------------------------------|
--7------------------------------------------------------|


  E   E    E    E    E    E    E    E    E    E    E    E    
------------------------------------------------------------|
--8------------(8)------------(8)------------(8)------------|
----------(9)------------(9)------------(9)------------(9)--|
-----(9)------------(9)------------(9)------------(9)-------|
------------------------------------------------------------|
--0---------------------------------------------------------|


     E   E    E    E   E    E   S   S  E   E   E   E   E   
|----------------------------------------------0----------|
|---11------------10------------8h-10p-8------------------|
|*-----------(9)-----------(9)------------(9)----------7--|
|*------(9)-----------(9)-------------------------(9)-----|
|---------------------------------------------------------|
|----7----------------------------------------------------|


  E   E    E    E    E    E    E    E    E    E    E    E      
---------------(0)------------(0)------------(0)-------------||
-------------------------------------------------------------||
--9-------(9)------------(9)------------(9)------------(9)--*||
-----(9)------------(9)------------(9)------------(9)-------*||
-------------------------------------------------------------||
-------------------------------------------------------------||


   E   E    E    E   E    E   E   E    E    E    E    E    
----------------------------------------------------------|
--11------------10------------8------------(8)------------|
-----------(9)-----------(9)----------(9)------------(9)--|
------(9)-----------(9)----------(9)------------(9)-------|
----------------------------------------------------------|
---0------------------------------------------------------|


   E    E    E    E    E    E    E    E    E    E    E    E    
--------------------------------------------------------------|
--(8)------------(8)------------(8)------------(8)------------|
------------(9)------------(9)------------(9)------------(9)--|
-------(9)------------(9)------------(9)------------(9)-------|
--------------------------------------------------------------|
--------------------------------------------------------------|


  E   E    E    E    E    E    E    E    E    E    E    E    
------------------------------------------------------------|
--6------------(6)------------(6)------------(6)------------|
----------(9)------------(9)------------(9)------------(9)--|
-----(9)------------(9)------------(9)------------(9)-------|
------------------------------------------------------------|
--0---------------------------------------------------------|


  E   E    E    E    E    E    E    E    E    E    E    E    
------------------------------------------------------------|
--6------------(6)------------(6)------------(6)------------|
----------(9)------------(9)------------(9)------------(9)--|
-----(9)------------(9)------------(9)------------(9)-------|
------------------------------------------------------------|
------------------------------------------------------------|


  ^                  
  W.                 
-------------------||
-------------------||
--9----------------||
--9----------------||
--7----------------||
--7----------------||




Duration Legend
---------------
W - whole
H - half
Q - quarter
E - 8th
S - 16th
T - 32nd
X - 64th
. - note dotted
|-n-|  - n-tuplets


Tablature Legend
----------------
L - tied note
x - dead note
g - grace note
(n) - ghost note
> - accentuded note
NH - natural harmonic
AH - artificial harmonic
TH - tapped harmonic
SH - semi harmonic
PH - pitch harmonic
h - hammer on
p - pull off
b - bend
br - bendRelease
pb - preBend
pbr - preBendRelease
brb - bendReleaseBend
\n/ - tremolo bar dip
\n - tremolo bar dive
-/n - tremolo bar Release up
/n\ - tremolo bar inverted dip
/n - tremolo bar return
-\n - tremolo bar Release down
S - shift slide
s - legato slide
/ -  slide into from below or out of upwards
\ -  slide into from above or out of downwards
~ - vibrato
W - wide vibrato
tr - trill
TP - tremolo picking
T - tapping
S - slap
P - pop
< - fade in
^ - brush up
v - brush down
Добавлено: 08.07.2015
Другие материалы по этой песне:
  • Аккорды и текст

Страница создана 08.07.2015
http://primanota.ru/misc-computer-games/last-of-us-theme-chords.htm
Привет, Гость.
Предлагаем пройти революционный курс по гитаре.
Подарок от PrimaNota.Ru, забирай!