PrimaNota.ru - самый крупный в мире бесплатный архив песенных текстов, аккордов, табулатур и нот


Misc Computer Games - Super Amazing Wagon Adventure - таба, видео

Регистрация Запомнить меня
Войти через:  Facebook Google Twitter Vk Yandex Mail.ru

Misc Computer Games - Super Amazing Wagon Adventure - таба, видео

Печатать
Просмотров: 88
-------------------------------------------------------------------------------
                   Super Amazing Wagon Adventure - Sparsevector
-------------------------------------------------------------------------------
Tabbed by: Aznangel (@SocialStuntDbl)
E-mail: djk9000@gmail.com
Game audio page: http://sparsevector.bandcamp.com/
Tuning: Standard

Hey! I tried to figure out some of the catchy melodies in this very historically 
accurate Oregon Trail remake.
I transcribed it from piano, you can see my draft notes here:
https://www.dropbox.com/s/3o94c76cakvqtin/SuperAmazingWagonAdventure.jpg?dl=0

Buffalo.

TITLE:
Melody
e|---------------------------------------------------------------------------|
B|--------------1--------1---------------------------------------------------|
G|-----0---2--0-----2--0-----------------------------------------------------|
D|---2-----------------------0--2-0------------------------------------------|
A|-3-----3--------3--------3-------------------------------------------------|
E|---------------------------------------------------------------------------|

e|---------------------------------------------------------------------------|
B|--------------1--------1---------------------------------------------------|
G|-----0---2--0-----2--0-----------------------------------------------------|
D|---2-----------------------0--2--------------------------------------------|
A|-3-----3--------3--------3-------------------------------------------------|
E|---------------------------------------------------------------------------|

x2

Bassline

e|---------------------------------------------------------------------------|
B|---------------------------------------------------------------------------|
G|----------2222222222222222-------------------------------------------------|
D|---------------------------00000000----------------------------------------|
A|-33333333------------------------------------------------------------------|
E|---------------------------------------------------------------------------|

FOREST:
Melody #1
e|------------------------------------|--------------------------------------|
B|------------------------------------|--------------------------------------|
G|-------0--------2--------0---4-2-0--|-------0--------2--------0------------|
D|---0-2------0-2------0-2-----------3|---0-2------0-2------0-2----2--3------|
A|-3--------3--------3-------3--------|-3--------3--------3------------------|
E|------------------------------------|--------------------------------------|

e|------------------------------------|--------------------------------------|
B|------------------------------------|--------------------------------------|
G|-------0--------2--------0---4-2-0--|-------0--------2--------0------------|
D|---0-2------0-2------0-2-----------3|---0-2------0-2------0-2----2--3------|
A|-3--------3--------3-------3--------|-3--------3--------3------------------|
E|------------------------------------|--------------------------------------|

Then
e|---------------------------------------------------------------------------|
B|---------------------------------------------------------------------------|
G|----------22222222----------2222-------------------------------------------|
D|---------------------------------3333--------------------------------------|
A|-33333333----------33333333------------------------------------------------|
E|---------------------------------------------------------------------------|

Then Melody #2
e|------------------------------------|--------------------------------------|
B|------------------------------------|--------------------------------------|
G|-------0---0-2-0---------0-----2-----|-------0---0-2-0---------0-----2--3--|
D|---0-2---2--------3-2------2------3--|---0-2---2--------3-2------2---------|
A|-3---------------------3-----0-------|-3---------------------3-----3-------|
E|------------------------------------|--------------------------------------|

PLAINS
Melody
e|-----------------------------|---------------------------------------------|
B|-----------------------------|---------------------------------------------|
G|-----------------------------|---------------------------------------------|
D|-----------------------------|---------------------------------------------|
A|-0--3-5-3-0-3-5-3-0-3-5-7-0--|-0--3-5-3-0-7-5-0-3-0-3----------------------|
E|-----------------------------|------------------------1--3-----------------|

e|-----------------------------------|---------------------------------------|
B|-----------------------------------|---------------------------------------|
G|-----------------------------------|---------------------------------------|
D|-----------------------------------|---------------------------------------|
A|-0--3-5-3-0-3-5-7--5-3-5--5-3-7-0--|-0--3-5-3-0--5-3-0-3-0-3---------------|
E|-----------------------------------|-------------------------1--3----------|

Bassline
e|---------------------------------------------------------------------------|
B|---------------------------------------------------------------------------|
G|---------------------------------------------------------------------------|
D|---------------------------------------------------------------------------|
A|-000000000000000000000000--------------------------------------------------|
E|--------------------------1111-3333----------------------------------------|

DESERT
Melody (not sure how to write out the rhythm)
e|---------------------------------------------------------------------------|
B|---------------------------------------------------------------------------|
G|---------------------------------------------------------------------------|
D|---------------------------------------------------------------------------|
A|---------------------------------------------------------------------------|
E|-0--0-0-0-0--0---7\0 5--5-5-5-5-1--0--0-0-0-0--0---------------------------|

Sometimes just
e|---------------------------------------------------------------------------|
B|---------------------------------------------------------------------------|
G|---------------------------------------------------------------------------|
D|---------------------------------------------------------------------------|
A|---------------------------------------------------------------------------|
E|-0--0-0-0-0-0--0-----------------------------------------------------------|

Background bassline (I'm not too sure about this)
e|---------------------------------------------------------------------------|
B|---------------------------------------------------------------------------|
G|---------------------------------------------------------------------------|
D|---------------------------------------------------------------------------|
A|---------------------------------------------------------------------------|
E|-0-0-0-0-0-0-0-0-0-8-7-5-7-8-7-5-------------------------------------------|

MOUNTAIN PASS (need help with the arpeggio but here's the bassline)
e|----------------------------|----------------------------------------------|
B|----------------------------|----------------------------------------------|
G|----------------------------|----------------------------------------------|
D|----------------------------|----------------------------------------------|
A|----------------------------|----------------------------------------------|
E|-00-00-00-00-00-00-00-0110--|-00-00-00-00-00-00-00-1-----------------------|

RAFTING
Bassline
e|---------------------------------------------------------------------------|
B|---------------------------------------------------------------------------|
G|---------------------------------------------------------------------------|
D|----------3333333333333333-00000000----------------------------------------| x3
A|-33333333------------------------------------------------------------------|
E|---------------------------------------------------------------------------|

e|---------------------------------------------------------------------------|
B|---------------------------------------------------------------------------|
G|------------------------------- 0000---------------------------------------|
D|----------3333333333333333-0000--------------------------------------------|
A|-33333333------------------------------------------------------------------|
E|---------------------------------------------------------------------------|

Melody
e|----------------|-----------------------------------------------------------|
B|----------------|-----------------------------------------------------------|
G|-----0---2------|-----0---2------0------------------------------------------|
D|---2---------0--|---2---------0---------------------------------------------|
A|-3-----3--------|-3-----3---------------------------------------------------|
E|----------------|-----------------------------------------------------------|

A little rough on the edges, but there's a start. Please feel free to improve on this!
Happy hunting all!
************************************

| /   slide up
| \   slide down
Добавлено: 27.06.2015
Другие материалы по этой песне:
  • Аккорды и текст

Страница создана 27.06.2015
http://primanota.ru/misc-computer-games/super-amazing-wagon-adventure-chords.htm
Привет, Гость.
Предлагаем пройти революционный курс по гитаре.
Подарок от PrimaNota.Ru, забирай!