PrimaNota.ru - самый крупный в мире бесплатный архив песенных текстов, аккордов, табулатур и нот


Misc Computer Games - Legend Of Zelda - Main Theme - таба, видео

Регистрация Запомнить меня
Войти через:  Facebook Google Twitter Vk Yandex Mail.ru

Misc Computer Games - Legend Of Zelda - Main Theme - таба, видео

Печатать
Просмотров: 91
-------------------------------------------------------------------------------
           Legend Of Zelda, Main theme(lead guitar) - Kōji Kondō
-------------------------------------------------------------------------------

Tuning:standard

e|---------------------------------------------------------|
B|----11-------11------------11------11--------------------|
G|------10--10------13--11--13-----11--11------14--12--14--|
D|---------------------------------------------------------|
A|---------------------------------------------------------|
E|---------------------------------------------------------|

e|-------------------------------13-13-14-16-18----18-18-16-14-16-14-13--|
B|---11----------11-11--13-14--------------------------------------------|
G|-------10--------------------------------------------------------------|
D|-----------------------------------------------------------------------|
A|-----------------------------------------------------------------------|
E|-----------------------------------------------------------------------|

e|-13--11-11-13-14--13-11--9-9-11-13--11-9--8-8-10-12--15-13---------------------------------|
B|------------------------------------------------------------10-10-10-10-10-10-10-10-10-10--|
G|-------------------------------------------------------------------------------------------|
D|-------------------------------------------------------------------------------------------|
A|-------------------------------------------------------------------------------------------|
E|-------------------------------------------------------------------------------------------|

e|-----------------------------13-13-14-16-18---21-20-----|
B|---11---------11-11--13-14--------------------------22--|
G|-------10-----------------------------------------------|
D|--------------------------------------------------------|
A|--------------------------------------------------------|
E|--------------------------------------------------------|

e|-13-14------18-17----------13-14------18-17------------------14-13-----|
B|------------------18------------------------18-----15-16-----------14--|
G|-----------------------------------------------------------------------|
D|-----------------------------------------------------------------------|
A|-----------------------------------------------------------------------|
E|-----------------------------------------------------------------------|

e|--------------------13-15-13----------------------------------|
B|-11-13-13-15-17-17--------------------------------------------|
G|-------------------------------10-10-10-10-10-10-10-10-10-10--|
D|--------------------------------------------------------------|
A|--------------------------------------------------------------|
E|--------------------------------------------------------------|
Добавлено: 14.07.2015
Другие материалы по этой песне:

Страница создана 14.07.2015
http://primanota.ru/misc-computer-games/legend-of-zelda-main-theme-chords.htm
Привет, Гость.
Предлагаем пройти революционный курс по гитаре.
Подарок от PrimaNota.Ru, забирай!