PrimaNota.ru - самый крупный в мире бесплатный архив песенных текстов, аккордов, табулатур и нот


Misc Computer Games - Red Dead Redemption - Dead End Alley - таба, видео

Регистрация Запомнить меня
Войти через:  Facebook Google Twitter Vk Yandex Mail.ru

Misc Computer Games - Red Dead Redemption - Dead End Alley - таба, видео

Печатать
Просмотров: 81
-------------------------------------------------------------------------------
 Dead End Valley - Red Dead Redemption (composed by Bill Elm and Woody Jackson)
-------------------------------------------------------------------------------
Tabbed by: StevenBeaven90
E-mail: stevenkotelnikov@Gmail.com
Feel free to email me if you have any questions about this tab or any other of my tabs.

Tuning: Standard

(0:00-0:10)
e|-------------------------------------12-12-10-10---------------------------|
B|-10-12-13---10-10-8-10----10-12-13-----------------------------------------|
G|---------------------------------------------------------------------------|
D|---------------------------------------------------------------------------|
A|---------------------------------------------------------------------------|
E|---------------------------------------------------------------------------|

(0:10-0:21)
e|---------------------------------------------------------------------------|
B|-10-12-13---10-10-8-10----10-8---------------------------------------------|
G|---------------------------------------------------------------------------|
D|-------------------------------10---9-9-10-7-------------------------------|
A|---------------------------------------------------------------------------|
E|---------------------------------------------------------------------------|

(0:21-0:30)
e|-------12----12-10---------------12---15-15-12-12--12----------------------|
B|-10-13-------------13-10---10-13-------------------------------------------|
G|---------------------------------------------------------------------------|
D|---------------------------------------------------------------------------|
A|---------------------------------------------------------------------------|
E|---------------------------------------------------------------------------|

(0:30-0:40)
e|-12-15-15--12--10-12-------------------------------------------------------|
B|---------------------13--10--10-13-----------------------------------------|
G|-----------------------------------12------12-14-14------------------------|
D|---------------------------------------14----------------------------------|
A|---------------------------------------------------------------------------|
E|---------------------------------------------------------------------------|

(0:40-0:50)
e|---------------------------------12-12--12-15-12--12-----------------------|
B|-10-12-13----10-8-10----10-12-13-------------------------------------------|
G|---------------------------------------------------------------------------|
D|---------------------------------------------------------------------------|
A|---------------------------------------------------------------------------|
E|---------------------------------------------------------------------------|

(0:50-1:01)
e|-12-15-17---17-17-15-12--12--10-12-----------------------------------------|
B|-----------------------------------13--10--8-10-10-------------------------|
G|---------------------------------------------------------------------------|
D|---------------------------------------------------------------------------|
A|---------------------------------------------------------------------------|
E|---------------------------------------------------------------------------|

(1:01-1:12)
e|-------------------------------------12-12-10-10---------------------------|
B|-10-12-13---10-10-8-10----10-12-13-----------------------------------------|
G|---------------------------------------------------------------------------|
D|---------------------------------------------------------------------------|
A|---------------------------------------------------------------------------|
E|---------------------------------------------------------------------------|

(1:12-1:22)
e|---------------------------------------------------------------------------|
B|-10-12-13---10-10-8-10----10-8---------------------------------------------|
G|---------------------------------------------------------------------------|
D|-------------------------------10---9-9-10-7-------------------------------|
A|---------------------------------------------------------------------------|
E|---------------------------------------------------------------------------|

(1:22-1:33)
e|-------12----12-10---------------12---15-15-12-12--12----------------------|
B|-10-13-------------13-10---10-13-------------------------------------------|
G|---------------------------------------------------------------------------|
D|---------------------------------------------------------------------------|
A|---------------------------------------------------------------------------|
E|---------------------------------------------------------------------------|

(1:33-1:42)
e|-12-15-15--12--10-12-------------------------------------------------------|
B|---------------------13--10--10-13-----------------------------------------|
G|-----------------------------------12------12-14-14------------------------|
D|---------------------------------------14----------------------------------|
A|---------------------------------------------------------------------------|
E|---------------------------------------------------------------------------|

(1:42-1:52)
e|---------------------------------12-12--12-15-12--12-----------------------|
B|-10-12-13----10-8-10----10-12-13-------------------------------------------|
G|---------------------------------------------------------------------------|
D|---------------------------------------------------------------------------|
A|---------------------------------------------------------------------------|
E|---------------------------------------------------------------------------|

(1:52-2:01)
e|-12-15-17---17-17-15-12--12--10-12-----------------------------------------|
B|-----------------------------------13--10--8-10-10-------------------------|
G|---------------------------------------------------------------------------|
D|---------------------------------------------------------------------------|
A|---------------------------------------------------------------------------|
E|---------------------------------------------------------------------------|

************************************

| /   slide up
| \   slide down
| x   Mute note

************************************
Добавлено: 14.07.2015
Другие материалы по этой песне:
  • Аккорды и текст

Страница создана 14.07.2015
http://primanota.ru/misc-computer-games/red-dead-redemption-dead-end-alley-chords.htm
Привет, Гость.
Предлагаем пройти революционный курс по гитаре.
Подарок от PrimaNota.Ru, забирай!