PrimaNota.ru - самый крупный в мире бесплатный архив песенных текстов, аккордов, табулатур и нот


Misc Computer Games - Red Dead Redemption - Theme From Red Dead Redemption - таба, видео

Регистрация Запомнить меня
Войти через:  Facebook Google Twitter Vk Yandex Mail.ru

Misc Computer Games - Red Dead Redemption - Theme From Red Dead Redemption - таба, видео

Печатать
Просмотров: 149
-------------------------------------------------------------------------------
          Red Dead Redemption - Theme from Red Dead Redemption(guitar riff)
-------------------------------------------------------------------------------
Listen to the song to get the timing right.
This is the riff that starts at around 3:40 and ends at the end of the theme song of Red Dead Redemption.

Tuning: Standard (E A D G B e)

e|---------------------------------------------------------------------------|
B|----8-10--------------5-8-5------------------5-----------------------------|
G|----------------------------------------5-7-----------------5/7/4----------| x2
D|---------------------------------------------------------------------------|
A|---------------------------------------------------------------------------|
E|---------------------------------------------------------------------------|

e|---------------------------------------------------------------------------|
B|---------------------------------------------------------------------------|
G|----5-4-2-------------4-5-4-------------5-7-5------------4-5-4--------5-4-2|
D|---------------------------------------------------------------------------|
A|---------------------------------------------------------------------------|
E|---------------------------------------------------------------------------|

e|---------------------------------------------------------------------------|
B|---------------------------------------------------------------------------|
G|----2--------4-5-4---------------------------------------------------------|
D|---------------------------------------------------------------------------|
A|---------------------------------------------------------------------------|
E|---------------------------------------------------------------------------|

And then it repeats

************************************

| /   slide up
| \   slide down
| h   hammer-on
| p   pull-off
| ~   vibrato
| +   harmonic
| x   Mute note
| b   Bend
| pb  Pre-bend
| br  Bend release
| pbr Pre-bend release
| brb Bend release bend

************************************
Добавлено: 08.07.2015
Другие материалы по этой песне:
  • Аккорды и текст

Страница создана 08.07.2015
http://primanota.ru/misc-computer-games/red-dead-redemption-theme-from-red-dead-redemption-chords.htm
Привет, Гость.
Предлагаем пройти революционный курс по гитаре.
Подарок от PrimaNota.Ru, забирай!