PrimaNota.ru - самый крупный в мире бесплатный архив песенных текстов, аккордов, табулатур и нот


Misc Computer Games - One Late Night - Song - таба, видео

Регистрация Запомнить меня
Войти через:  Facebook Google Twitter Vk Yandex Mail.ru

Misc Computer Games - One Late Night - Song - таба, видео

Печатать
Просмотров: 104
Intro (and the main melody in song)

E|-------------------------------------|
B|--19-18-19-15~~--19-14~~--19-12~~----|
G|-------------------------------------|
D|-------------------------------------|
A|-------------------------------------|
E|-------------------------------------|    

Bridge 1

E|-------------------------------------|
B|--19-17-15--19-14--19-12-------------|
G|-------------------------------------|
D|-------------------------------------|
A|-------------------------------------|
E|-------------------------------------|    


Bridge 2

E|-------------------------------------|
B|---19-18-17-15--19-14--19-12---------|
G|-------------------------------------|
D|-------------------------------------|
A|-------------------------------------|
E|-------------------------------------|    


It all what you must know to play this creepy song. I hope you enjoy!

You can also use chords then it looks like this:


E|-------------------------------------|
B|--19-18-19-15~~--19-14~~--19-12~~----|
G|-----------16~~-----14~~-----12~~----|
D|-----------17~~-----14~~-----12~~----|
A|-------------------------------------|
E|-------------------------------------|   

In my opinion sounds better ;)
Добавлено: 14.07.2015
Другие материалы по этой песне:
  • Аккорды и текст

Страница создана 14.07.2015
http://primanota.ru/misc-computer-games/one-late-night-song-chords.htm
Привет, Гость.
Предлагаем пройти революционный курс по гитаре.
Подарок от PrimaNota.Ru, забирай!