PrimaNota.ru - самый крупный в мире бесплатный архив песенных текстов, аккордов, табулатур и нот


Misc Computer Games - Faxanadu - Land Of Mist - таба, бас-таба

Регистрация Запомнить меня
Войти через:  Facebook Google Twitter Vk Yandex Mail.ru

Misc Computer Games - Faxanadu - Land Of Mist - таба, бас-таба

Печатать
Просмотров: 121
Gtr I (B E A D G B E) 
Gtr II (B E A D G B E)

  Q=100
  Gtr I
   E E E E E E E E   E E E E E E E E    E  E  E E E E  E  E    E E E E  E E E E
|-----------------|-----------------|----------------------|-------------------|
|-----------------|-----------------|----------------------|-------------------|
|-----------------|-----------------|----------------------|-------------------|
|-----4-------4---|-----4-------4---|--------4--------4----|------4--------4---|
|-------5-------5-|-------5-------5-|----------5---------5-|--------5--------5-|
|-3-6-----3-6-----|-3-6-----3-6-----|--3--6------3-6-------|--3-6------3-6-----|
|-----------------|-----------------|----------------------|-------------------|
|
| Gtr II
|                                            ~~               ~~~~~~~~~~~
| W                 W                  E  E  H        E  E    H        H
|-----------------|-----------------|-------17-------------|-------------------|
|-----------------|-----------------|-19-20----------19-20-|-17----------------|
|-----------------|-----------------|----------------------|-------------------|
|-----------------|-----------------|----------------------|----------19-------|
|-----------------|-----------------|----------------------|-------------------|
|-----------------|-----------------|----------------------|-------------------|
|-----------------|-----------------|----------------------|-------------------|


   E  E  E E E E  E  E    E  E  E  E E E E E
|----------------------|---------------------|
|----------------------|---------------------|
|----------------------|---------------------|
|--------4--------4----|--------4--------4---|
|----------5---------5-|-----------5-------5-|
|--3--6------3-6-------|--3--6-------3-6-----|
|----------------------|---------------------|
|
|        ~~                        ~~
|  E  E  H        E  E    E  E  E  H       E
|-------17-------------|---------------------|
|-19-20----------19-20-|-17------------------|
|----------------------|----20-19------------|
|----------------------|----------19---------|
|----------------------|---------------------|
|----------------------|---------------------|
|----------------------|---------------------|


   E  E  E E E E  E  E    E E E E  E E E E
|----------------------|-------------------|
|----------------------|-------------------|
|----------------------|-------------------|
|--------4--------4----|------4--------4---|
|----------5---------5-|--------5--------5-|
|--3--6------3-6-------|--3-6------3-6-----|
|----------------------|-------------------|
|
|        ~~               ~~~~~~~~~~~
|  E  E  H        E  E    H        H
|-------17-------------|-------------------|
|-19-20----------19-20-|-17----------------|
|----------------------|-------------------|
|----------------------|----------19-------|
|----------------------|-------------------|
|----------------------|-------------------|
|----------------------|-------------------|


   E  E  E E E E  E  E    E  E  E  E E E E E
|----------------------|---------------------|
|----------------------|---------------------|
|----------------------|---------------------|
|--------4--------4----|--------4--------4---|
|----------5---------5-|-----------5-------5-|
|--3--6------3-6-------|--3--6-------3-6-----|
|----------------------|---------------------|
|
|        ~~                        ~~
|  E  E  H        E  E    E  E  E  H
|-------17-------------|---------------------|
|-19-20----------19-20-|-17------------------|
|----------------------|----20-19------------|
|----------------------|----------19---------|
|----------------------|---------------------|
|----------------------|---------------------|
|----------------------|---------------------|


                  ~                                    ~~
  Q       Q       H                   Q       Q        H
|-----------------------------------|-----------------10----------------------|
|-----------------9-----------------|-7-------8-------------------------------|
|-7-------8-------------------------|-----------------------------------------|
|-----------------------------------|-----------------------------------------|
|-----------------------------------|-----------------------------------------|
|-----------------------------------|-----------------------------------------|
|-----------------------------------|-----------------------------------------|
|
| Gtr III
| S S S S S S S S S S S S S  S  S S   S S S S S S S S  S  S S S S  S  S  S
|-----------------------------------|-----------------10----------------------|
|-----------------9-----------------|-7-------8----------12-------------------|
|-7-------8---------7---------------|---7-------7-----------9-----------------|
|---7-------7---------7-------------|-----7-------6-----------9---------------|
|-----9-7-----9-7-------9-7---------|-------9-------7-----------9-------------|
|---------------------------10------|-----------------------------11-10-10----|
|------------------------------10-8-|-----------------------------------------|


                                            ~~~~~~~~~~~~~~~~~~~~~
  Q           Q          Q        Q         H                  H
|-9----------------------8--------7-------|-------------------------------------|
|------------10---------------------------|-8-----------------------------------|
|-----------------------------------------|--------------------7----------------|
|-----------------------------------------|-------------------------------------|
|-----------------------------------------|-------------------------------------|
|-----------------------------------------|-------------------------------------|
|-----------------------------------------|-------------------------------------|
|
| S  S  S  S  S  S  S  S S  S S S S S S S   S S S  S S  S  S S S S  S S S S S S
|-9----------------------8--------7-------|-------------------------------------|
|---10-------10------------10-------7-----|-8-----------------------------------|
|------11-------11------------9-------9---|---7----------------7----------------|
|---------12-------12-----------7-------9-|-----9----------------9--------------|
|---------------------12------------------|-------10-9-------------10-7-5-------|
|-----------------------------------------|------------10-----------------7-----|
|-----------------------------------------|---------------12-8--------------6-6-|


                  ~                                    ~~
  Q       Q       H                   Q       Q        H
|-----------------------------------|-----------------10----------------------|
|-----------------9-----------------|-7-------8-------------------------------|
|-7-------8-------------------------|-----------------------------------------|
|-----------------------------------|-----------------------------------------|
|-----------------------------------|-----------------------------------------|
|-----------------------------------|-----------------------------------------|
|-----------------------------------|-----------------------------------------|
|
| S S S S S S S S S S S S S  S  S S   S S S S S S S S  S  S S S S  S  S  S
|-----------------------------------|-----------------10----------------------|
|-----------------9-----------------|-7-------8----------12-------------------|
|-7-------8---------7---------------|---7-------7-----------9-----------------|
|---7-------7---------7-------------|-----7-------6-----------9---------------|
|-----9-7-----9-7-------9-7---------|-------9-------7-----------9-------------|
|---------------------------10------|-----------------------------11-10-10----|
|------------------------------10-8-|-----------------------------------------|


  Q           Q          Q        Q
|-9----------------------8--------7-------|
|------------10---------------------------|
|-----------------------------------------|
|-----------------------------------------|
|-----------------------------------------|
|-----------------------------------------|
|-----------------------------------------|
|
| S  S  S  S  S  S  S  S S  S S S S S S S
|-9----------------------8--------7-------|
|---10-------10------------10-------7-----|
|------11-------11------------9-------9---|
|---------12-------12-----------7-------9-|
|---------------------12------------------|
|-----------------------------------------|
|-----------------------------------------|


  ~~~~~~~~~~~~~~~~~~~~~
  H                  H                  E E E E   E E E E   E E E E   E E E E
|-------------------------------------|-------------------|--------------------|
|-8-----------------------------------|-------------------|--------------------|
|--------------------7----------------|-------9-----------|-------9------------|
|-------------------------------------|-----6-----6-------|-----6-----6--------|
|-------------------------------------|-5-8---------8-5-8-|-5-8---------8-5-8--|
|-------------------------------------|-------------------|--------------------|
|-------------------------------------|-------------------|--------------------|
|
|                                       Gtr IV
| S S S  S S  S  S S S S  S S S S S S   E Q   S S E E Q     E Q   S S E E Q
|-------------------------------------|-------------------|--------------------|
|-8-----------------------------------|-------5-----------|-------5------------|
|---7----------------7----------------|-------------------|--------------------|
|-----9----------------9--------------|---------6---3-----|---------6---3------|
|-------10-9-------------10-7-5-------|-----------5-------|-----------5--------|
|------------10-----------------7-----|-------------------|--------------------|
|---------------12-8--------------6-6-|-------------------|--------------------|


  E E E E   E E E E   E E E E   E E E E
|-------5-----------|-------5-----------|
|-------------------|-------------------|
|-----6-----6-------|-----6-----6-------|
|-5-8---------8-5-8-|-5-8---------8-5---|
|-------------------|-----------------4-|
|-------------------|-------------------|
|-------------------|-------------------|
|
| E Q   S S E E Q     E Q   S S E E Q
|-------5-----------|-------5-----------|
|-------------------|-------------------|
|---------6---3-----|---------6---3-----|
|-----------5-------|-----------5-------|
|-------------------|---------------4---|
|-------------------|-------------------|
|-------------------|-------------------|


  E E E E   E E E E   E E E E   E E E E
|-------------------|-------------------|
|-------------------|-------------------|
|-------9-----------|-------9-----------|
|-----6-----6-------|-----6-----6-------|
|-5-8---------8-5-8-|-5-8---------8-5-8-|
|-------------------|-------------------|
|-------------------|-------------------|
|
| E Q   S S E E Q     E Q   S S E E Q
|-------------------|-------------------|
|-------5-----------|-------5-----------|
|-------------------|-------------------|
|---------6---3-----|---------6---3-----|
|-----------5-------|-----------5-------|
|-------------------|-------------------|
|-------------------|-------------------|


  E E E E   E E E E   E E E E   E E E E
|-------5-----------|-------5--------------|
|-------------------|----------------------|
|-----6-----6-------|-----6-----6----------|
|-5-8---------8-5-8-|-5-8---------8-5------|
|-------------------|-----------------4----|
|-------------------|----------------------|
|-------------------|----------------------|
|
| E Q   S S E E Q     E Q   S S E E Q
|-------5-----------|-------5--------------|
|-------------------|----------------------|
|---------6---3-----|---------6---3--------|
|-----------5-------|-----------5----------|
|-------------------|---------------4------|
|-------------------|----------------------|
|-------------------|----------------------|



Добавлено: 16.06.2015
Другие материалы по этой песне:

Страница создана 15.06.2015
http://primanota.ru/misc-computer-games/faxanadu-land-of-mist-chords.htm
Привет, Гость.
Предлагаем пройти революционный курс по гитаре.
Подарок от PrimaNota.Ru, забирай!