PrimaNota.ru - самый крупный в мире бесплатный архив песенных текстов, аккордов, табулатур и нот


Misc Computer Games - F-zero - Sand Ocean - таба, бас-таба, видео

Регистрация Запомнить меня
Войти через:  Facebook Google Twitter Vk Yandex Mail.ru

Misc Computer Games - F-zero - Sand Ocean - таба, бас-таба, видео

Печатать
Просмотров: 126
Gtr I (E A D G B E) 
Gtr II (E A D G B E) 
Gtr III (E A D G B E) 

The arrangement is pretty abstract, guitar 3 is a polyrhythm before the tune repeats

  Q=110
  Gtr I
  H    Q    H    Q    E E  E E E E   E E  E E  E E
|---------|---------|--------------|----------------|
|---------|---------|--------------|--------9-------|
|---------|---------|-7-9-11-9-7-9-|-7-9-11---11-9--|
|---------|---------|--------------|----------------|
|---------|---------|--------------|----------------|
|---------|---------|--------------|----------------|


  E E  E E E E   E E  E E  E E   E E  E E E E   E E  E E  E E
|--------------|--------7------|--------------|----------------|
|-7-9-10-9-7-9-|-7-9-10-9-10-9-|--------------|--------9-------|
|-7-9-11-9-7-9-|-7-9-11---11-9-|-7-9-11-9-7-9-|-7-9-11---11-9--|
|--------------|---------------|--------------|----------------|
|--------------|---------------|--------------|----------------|
|--------------|---------------|--------------|----------------|
|
|                                Gtr II
|                                ~              ~
| H        Q     H         Q     H        E E   H         E E
|--------------|---------------|--------------|----------------|
|--------------|---------------|--------------|----------------|
|--------------|---------------|-6--------4-6-|-4-----------4--|
|--------------|---------------|--------------|-----------7----|
|--------------|---------------|--------------|----------------|
|--------------|---------------|--------------|----------------|


  E E  E E E E   E E  E E  E E   E E  E E E E   E E  E E  E E
|--------------|---------------|--------------|----------------|
|--------------|--------9------|--------------|--------9-------|
|-7-9-11-9-7-9-|-7-9-11---11-9-|-7-9-11-9-7-9-|-7-9-11---11-9--|
|--------------|---------------|--------------|----------------|
|--------------|---------------|--------------|----------------|
|--------------|---------------|--------------|----------------|
|
| ~              ~               ~              ~
| H        E E   H         E E   H        E E   H         E E
|--------------|---------------|--------------|----------------|
|--------------|---------------|--------------|----------------|
|--------------|---------------|-6--------4-6-|-4-----------4--|
|-7--------6-7-|-6-------------|--------------|-----------7----|
|--------------|-----------7-9-|--------------|----------------|
|--------------|---------------|--------------|----------------|


                                                       ~
  E E  E E E E   E E  E E  E E    Q   E E  E E    E  E H
|--------------|---------------|---------------|---------------------------|
|--------------|--------9------|---------------|---------------------------|
|-7-9-11-9-7-9-|-7-9-11---11-9-|---------------|---------------------------|
|--------------|---------------|--------7----7-|---------------------------|
|--------------|---------------|-10--10---10---|--9----7-------------------|
|--------------|---------------|---------------|----10---------------------|
|
| ~              ~
| H        E E   H         E E    Q   E E  E E    E  E E +S  S S  S S S
|--------------|---------------|---------------|---------------------------|
|--------------|---------------|---------------|---------------------------|
|--------------|---------------|---------------|---------------------------|
|-7--------6-7-|-6-------------|---------------|---------------------------|
|--------------|-----------7-9-|--7---7-9--7-9-|--------------------7-9----|
|--------------|---------------|---------------|-10--7-9-(9)-7-9-10--------|


                        ~                                 ~~~
   Q   E E  E E    E  E H          Q   E   E  E E   E  E  H
|---------------|---------------|-----------------|-------------------------|
|---------------|---------------|-----------------|-------------------------|
|---------------|-------7-------|-----------------|-------------------------|
|--------7----7-|---------------|----------7----7-|-------------------------|
|-10--10---10---|--9-10---------|-10--10-----10---|-9-----7-----------------|
|---------------|---------------|-----------------|---10--------------------|
|
|                       ~          ~~               ~
|  Q   E E  E E    E  E Q   E E    Q  +E   Q    E   Q    +E  S S  E S  S
|---------------|---------------|-----------------|-------------------------|
|---------------|---------------|-----------------|-------------------------|
|---------------|-------------7-|--9--(9)-------7-|-------------------------|
|---------------|-------9--10---|---------10------|-9----(9)-7-9-10-9-10----|
|--7---7-9--7-9-|-----7---------|-----------------|-------------------------|
|---------------|-10------------|-----------------|-------------------------|


                                                  ~~
   Q          E    E     E     E      E     E     H
|----------------------------------|----------------------------------|
|----------------------------------|----------------------------------|
|----------------------------------|--------------7-------------------|
|------------------7-----------7---|----------------------------------|
|-10---------10---------10---------|--9----10-------------------------|
|----------------------------------|----------------------------------|
|
|  S  S S  S  S S  S  S  S  S  S S    S  S  S  S  S S  S  S S  S  S S
|----------------------------------|----------------------------------|
|----------------------------------|----------------------------------|
|----------------------------------|----------------------------------|
|-12-10-9-12-10-9-12-10--9-12-10-9-|-12-11--9-12-11-9-12-11-9-12-11-9-|
|----------------------------------|----------------------------------|
|----------------------------------|----------------------------------|


   S S S S S  S S  S  S S S S    S  S  S  S  S  S S S S  S S S
|-----------------------------|--------------------------------|
|-----------------------------|--------------------------------|
|-----------------------------|--------------------------------|
|-----------------------------|--------------------------------|
|--7-7-7---7--7-8--8--8---8-8-|-10-10-10----10-10-9-9-9----9-9-|
|--------7--------------8-----|----------10-------------10-----|
|
| Gtr III
|  S S S S S  S S  S  S S S S    S  S  S  S  S  S S S S  S S S
|-----------------------------|--------------------------------|
|-----------------------------|--------------------------------|
|---------------7-------------|-----------------------9------9-|
|----7-9-7-9-10---10-10-9-7-9-|--9--7--7------------9------9---|
|-10--------------------------|----------10--9-10-7-----10-----|
|-----------------------------|--------------------------------|
|
| Gtr II
|  H                  Q          H                    Q
|-----------------------------|--------------------------------|
|-----------------------------|--------------------------------|
|-----------------------------|--------------------------------|
|-----------------------------|--------------------------------|
|-----------------------------|--------------------------------|
|-----------------------------|--------------------------------|


   S S S S  S  S S  S  S S S S    S  S  S  S  S  S S S S  S S S
|------------------------------|-----------------------------------|
|------------------------------|-----------------------------------|
|------------------------------|-----------------------------------|
|------------------------------|-----------------------------------|
|--7-7-7----7--7-8--8--8---8-8-|-10-10-10----10-10-9-9-9----9-9----|
|--------7---------------8-----|----------10-------------10--------|
|
|  S S S S  S  S S  S  S S S S    S  S  S  S  S  S S S S  S S S
|------------------------------|-----------------------------------|
|------------------------------|-----------------------------------|
|----------------7-------------|-----------------------9------9----|
|----7-9-7--9-10---10-10-9-7-9-|--9--7--7------------9------9------|
|-10---------------------------|----------10--9-10-7-----10--------|
|------------------------------|-----------------------------------|
|
|  Q        Q          Q          Q           Q        Q
|------------------------------|-----------------------------------|
|--8-------10---------12-------|-12--------------------------------|
|------------------------------|-------------11--------9-----------|
|------------------------------|-----------------------------------|
|------------------------------|-----------------------------------|
|------------------------------|-----------------------------------|


   S S S S  S  S S  S  S S S S    S  S  S  S  S  S  S  S  S  S   S  S
|------------------------------|--------------------------------------|
|------------------------------|--------------------------------------|
|------------------------------|--------------------------------------|
|------------------------------|--------------------------------------|
|--7-7-7----7--7-8--8--8---8-8-|-10-10-10----10-10-10-10-10-----10--9-|
|--------7---------------8-----|----------10----------------10--------|
|
|  S S S S  S  S S  S  S S S S    S  S  S  S  S  S  S  S  S  S   S  S
|------------------------------|--------------------------------------|
|------------------------------|--------------7--8--7-----------------|
|----------------7-------------|-----------9-----------7-----7--------|
|----7-9-7--9-10---10-10-9-7-9-|-----7--9-----------------7------7----|
|-10---------------------------|-10---------------------------------9-|
|------------------------------|--------------------------------------|
|
|  Q        Q          Q          Q           Q           E     +S  S
|------------------------------|--------------------------------------|
|------------------------------|--------------------------------------|
|--7-------------------7-------|--------------------------------------|
|----------10------------------|--9-----------7-----------------------|
|------------------------------|-------------------------10----(10)-9-|
|------------------------------|--------------------------------------|


   S S  S  S S  S   S  S   S   S S  S    S S  S  S  S  S   S S  S   S  S   S
|--------------------------------------|-----------------------------------------|
|--------------------------------------|-----------------------------------------|
|--------------------------------------|-----------------------------------------|
|--------------------------------------|-----------------------------------------|
|--7-7--7----7--7---5--5---5-----5--5--|-7-7--7-----7--7---7-7--7------7---7-----|
|----------7-------------------7-------|---------7------------------7------------|
|
|  S S  S  S S  S   S  S   S   S S  S    S S  S  S  S  S   S S  S   S  S   S
|--------------------------------------|-----------------------------------------|
|--------------------------------------|-----------------------------------------|
|-------------------7------------------|-----------------------------------------|
|----7--9--7-9-10-----10---9--10-9--7--|-9-7-----7-------------------------7-----|
|-10-----------------------------------|-----10----10--9--10-9--7---9-10---------|
|--------------------------------------|-----------------------------------------|
|
|  E   +S  E   +S   E     +S   E   +S    E   +S  E    +S   E   +S   E     +S
|--------------------------------------|-----------------------------------------|
|--------------------------------------|---------7----(7)--8---(8)-10----(10)----|
|--------------------------------------|-9---(9)---------------------------------|
|------------------------------9---(9)-|-----------------------------------------|
|--7---(7)-9---(9)-10----(10)----------|-----------------------------------------|
|--------------------------------------|-----------------------------------------|


  S S  S S  S  S S S  S S  S  S    S S S S S S S S S S S S
|-------------------------------|--------------------------|
|-------------------------------|--------------------------|
|-------------------------------|--------------------------|
|----------------7-7--7----7--7-|--7-7-7---7-7-7-7-7-7-----|
|-7-7--7----7--7--------7-------|--------7-------------7---|
|--------7----------------------|------------------------9-|
|
| S S  S S  S  S S S  S S  S  S    S S S S S S S S S S S S
|-------------------------------|--------------------------|
|-------------------------------|--------------------------|
|--------7--------------7-------|------------9-9---------9-|
|-9-7-------9--7-9-7-------9--7-|----7-9-7-9-----7-9-7-9---|
|-----10-------------10---------|--7-----------------------|
|-------------------------------|--------------------------|
|
| Q        +E    Q        +E       H       Q
|-7--------(7)------------------|--------------------------|
|----------------8--------(8)---|-10-----------------------|
|-------------------------------|--------------------------|
|-------------------------------|--------------------------|
|-------------------------------|--------------------------|
|-------------------------------|--------------------------|
Добавлено: 16.06.2015
Другие материалы по этой песне:

Страница создана 15.06.2015
http://primanota.ru/misc-computer-games/f-zero-sand-ocean-chords.htm
Привет, Гость.
Предлагаем пройти революционный курс по гитаре.
Подарок от PrimaNota.Ru, забирай!