PrimaNota.ru - самый крупный в мире бесплатный архив песенных текстов, аккордов, табулатур и нот


Misc Computer Games - Dragon Warrior I - Tantagel Castle - таба, бас-таба, видео

Регистрация Запомнить меня
Войти через:  Facebook Google Twitter Vk Yandex Mail.ru

Misc Computer Games - Dragon Warrior I - Tantagel Castle - таба, бас-таба, видео

Печатать
Просмотров: 106
Gtr I (E A D G B E) - Melody

  Gtr I
                     ~~~~~~~~~                             ~~~~~~~~~
  E E E E  E E E E   H    +Q   Q    E  E E  E E  E  E  E   H    +Q   Q
|------------------|--------------|----------------------|--------------|
|------------------|--------------|----------------------|--------------|
|---9-7-9----9---9-|--------------|---10-9-10-7-10----10-|--------------|
|---------10---9---|-7----(7)-----|----------------10----|-9----(9)-----|
|------------------|--------------|-5--------------------|--------------|
|-5----------------|--------------|----------------------|--------------|


                                                        ~~~~~~~~~
  E E  E E E E  E E    Q  Q   Q  E  E   Q   E E Q  Q    H    +Q   Q
|-------------------|-----------------|---------------|--------------|
|---8----8---8----8-|-----8--10--8----|---------------|--------------|
|-----10---9--------|-10-----------10-|-9-----9-7--8--|-9----(9)-----|
|-7------------11---|-----------------|----10---------|--------------|
|-------------------|-----------------|---------------|--------------|
|-------------------|-----------------|---------------|--------------|


  S S  S S  S S S S S S  S S  S S S S   S S  S S  S S S S S S  S S  S S S S
|-------------------------------------|-------------------------------------|
|-----10-9-10-------------------------|-----10-9-10-------------------------|
|---------------9-8-9-----------------|---------------9-8-9-----------------|
|-----------------------10-9-10---7---|-----------------------10-9-10---7---|
|-------------------------------------|-------------------------------------|
|-5-----------------------------------|-3-----------------------------------|


  E  E  E  E  E E  E E   E E E E E  E  E E
|----------------------|----------------------|
|----------------------|----------------------|
|------------10--------|-9-------9-------9----|
|-9----10-------7-10-7-|-----6-9------11------|
|---10----10-----------|---7-------10---------|
|----------------------|----------------------|


  S S  S S  S S  S S  S S S S S S S S   S S  S S  S S  S S  S S S S S S S S
|-------------------------------------|-------------------------------------|
|-----10-9-10-------------------------|-----10-9-10-------------------------|
|---------------10-9-10---7-6-7-------|---------------10-9-10---7-6-7-------|
|---------------------------------7---|---------------------------------7---|
|-5-----------------------------------|-3-----------------------------------|
|-------------------------------------|-------------------------------------|


  E  E  E  E  E E  E  E   E E E E E E E E
|-----------------------|--------------------|
|-----------------------|--------------------|
|------------10------10-|-9------------------|
|-9----10-------7-10----|---7-6--------------|
|---10----10------------|-------8-7-5--------|
|-----------------------|-------------8-7----|


Добавлено: 16.06.2015
Другие материалы по этой песне:

Страница создана 15.06.2015
http://primanota.ru/misc-computer-games/dragon-warrior-i-tantagel-castle-chords.htm
Привет, Гость.
Предлагаем пройти революционный курс по гитаре.
Подарок от PrimaNota.Ru, забирай!