PrimaNota.ru - самый крупный в мире бесплатный архив песенных текстов, аккордов, табулатур и нот


Misc Computer Games - Dragon Warrior 2 - Tower - таба, бас-таба, видео

Регистрация Запомнить меня
Войти через:  Facebook Google Twitter Vk Yandex Mail.ru

Misc Computer Games - Dragon Warrior 2 - Tower - таба, бас-таба, видео

Печатать
Просмотров: 124
Gtr I (E A D G B E) - 'Untitled'

  Gtr I
  E E E E E E S S E   E E E E E E S S E   W          W
|-------------------|-------------------|----------|------|
|-------------------|-------------------|----------|------|
|-------8-----------|-------8-----------|----------|------|
|-------------------|-------------------|-5--------|-5----|
|---7-8---7-8---7-8-|---7-8---7-8---7-8-|----------|------|
|-3-----------3-----|-3-----------3-----|-3--------|-3----|


  E E E E E E S S E   E E E E E E S S E   W          W
|-------------------|-------------------|----------|------|
|-------------------|-------------------|----------|------|
|-------8-----------|-------8-----------|----------|------|
|-------------------|-------------------|-5--------|-5----|
|---7-8---7-8---7-8-|---7-8---7-8---7-8-|----------|------|
|-3-----------3-----|-3-----------3-----|-3--------|-3----|


  E +S  S E E S S S S E E   E +S  S E E Q  +E  E
|-------------------------|----------------------|
|-------------------------|----------------------|
|-----------6-------------|----------------------|
|-8-(8)-6-----8-9-8-9-8-7-|-6-(6)-----9-6--(6)-5-|
|-------------------------|-------9--------------|
|-------------------------|----------------------|


  S S S S E E E E E E   E E E E E E E E
|---------------------|-----------------|
|---------------------|-----------------|
|-----------9-7-------|-----4---6-------|
|---------------5-----|---4---4---4---4-|
|-9-----9---------5---|-----------------|
|---7-----7---------3-|-2---------------|
Добавлено: 16.06.2015
Другие материалы по этой песне:

Страница создана 26.04.2015
http://primanota.ru/misc-computer-games/dragon-warrior-2-tower-chords.htm
Привет, Гость.
Предлагаем пройти революционный курс по гитаре.
Подарок от PrimaNota.Ru, забирай!