PrimaNota.ru - самый крупный в мире бесплатный архив песенных текстов, аккордов, табулатур и нот


Misc Computer Games - Donkey Kong Country 2 - School House Harmony - бас-таба, видео

Регистрация Запомнить меня
Войти через:  Facebook Google Twitter Vk Yandex Mail.ru

Misc Computer Games - Donkey Kong Country 2 - School House Harmony - бас-таба, видео

Печатать
Просмотров: 95
Donkey Kong Country 2 - School House Harmony

Tabbed by: Ashy (XxThreeCheersxX)
E-mail: burdickash@gmail.com

Tuning: Standard

Part I x 4
G|---------------------------|
D|-3---3-3---3--3--3-1---1-2-|
A|---------------------3-----|
E|---------------------------|

Part II x 2
G|---------------------------------0-------------------|
D|-3---3-3---3--3--3-1---1-2-1---1-----3-------------0-|
A|---------------------3------------------1--0-1-0-1---| 
E|-----------------------------------------------------|

Part I x 2

Part II x 2

Part III x 4
G|---------------------------|
D|---------------------------|
A|-3---3-3---3--3--3-1---1-2-|
E|---------------------3-----|

Happy playing!

| /  slide up
| \  slide down
| h  hammer-on
| p  pull-off
| ~  vibrato
| +  harmonic
| x  Mute note
===============================================================================
Добавлено: 16.06.2015
Другие материалы по этой песне:
  • Аккорды и текст

Страница создана 16.06.2015
http://primanota.ru/misc-computer-games/donkey-kong-country-2-school-house-harmony-chords.htm
Привет, Гость.
Предлагаем пройти революционный курс по гитаре.
Подарок от PrimaNota.Ru, забирай!