PrimaNota.ru - самый крупный в мире бесплатный архив песенных текстов, аккордов, табулатур и нот


Misc Computer Games - Double Dragon - Mission 1 - таба, бас-таба, видео

Регистрация Запомнить меня
Войти через:  Facebook Google Twitter Vk Yandex Mail.ru

Misc Computer Games - Double Dragon - Mission 1 - таба, бас-таба, видео

Печатать
Просмотров: 128
Gtr I (E A D G B E) 
Gtr II (E A D G B E) 

  Q=150
  Gtr I
  E  E E E  E E E  E   E  E E  Q   +E   Q
|--------------------|---------------------|
|--------------------|---------------------|
|----9-7----9-7----9-|----9-7-12--(12)-10--|
|---10-9---10-9---10-|---10-9-12--(12)-12--|
|--------------------|---------------------|
|--------------------|---------------------|
|
| Gtr II
| E  E E E  E E E  E   E  E E  Q   +E   Q
|--------------------|---------------------|
|--------------------|---------------------|
|--------------------|---------------------|
|----7-5----7-5----7-|----7-5-10--(10)--9--|
|----7-5----7-5----7-|----7-5-10--(10)--8--|
|--------------------|---------------------|


  E  E E E  E E E  E   E  E E  Q   +E   Q
|--------------------|---------------------|
|--------------------|---------------------|
|----9-7----9-7----9-|----9-7-10--(10)-12--|
|---10-9---10-9---10-|---10-9-12--(12)-14--|
|--------------------|---------------------|
|--------------------|---------------------|
|
| E  E E E  E E E  E   E  E E  Q   +E   Q
|--------------------|---------------------|
|--------------------|---------------------|
|--------------------|---------------------|
|----7-5----7-5----7-|----7-5--7---(7)--9--|
|----7-5----7-5----7-|----7-5--8---(8)-10--|
|--------------------|---------------------|


  E  E E E  E E E  E   E  E E  Q   +E   Q
|--------------------|---------------------|
|--------------------|---------------------|
|----9-7----9-7----9-|----9-7-12--(12)-10--|
|---10-9---10-9---10-|---10-9-12--(12)-12--|
|--------------------|---------------------|
|--------------------|---------------------|
|
| E  E E E  E E E  E   E  E E  Q   +E   Q
|--------------------|---------------------|
|--------------------|---------------------|
|--------------------|---------------------|
|----7-5----7-5----7-|----7-5-10--(10)--9--|
|----7-5----7-5----7-|----7-5-10--(10)--8--|
|--------------------|---------------------|


  E  E E E  E E E  E   E  E E E  E E  E E
|--------------------|--------------------|
|--------------------|--------------------|
|----9-7----9-7---12-|---14---------------|
|---10-9---10-9---14-|---15-------------7-|
|--------------------|-------------7-10---|
|--------------------|--------8-10--------|
|
| E  E E E  E E E  E   E  E E E  E E  E E
|--------------------|--------------------|
|--------------------|--------------------|
|--------------------|--------------------|
|----7-5----7-5----9-|---10---------------|
|----7-5----7-5---10-|---12------5--------|
|--------------------|--------8----0--3-5-|


  E  E E E  E E E  E   E  E E  Q   +E   Q
|--------------------|---------------------|
|--------------------|---------------------|
|----9-7----9-7----9-|----9-7-12--(12)-10--|
|---10-9---10-9---10-|---10-9-12--(12)-12--|
|--------------------|---------------------|
|--------------------|---------------------|
|
| E  E E E  E E E  E   E  E E  Q   +E   Q
|--------------------|---------------------|
|--------------------|---------------------|
|--------------------|---------------------|
|----7-5----7-5----7-|----7-5-10--(10)--9--|
|----7-5----7-5----7-|----7-5-10--(10)--8--|
|--------------------|---------------------|


  E  E E E  E E E  E   E  E E  Q   +E   Q
|--------------------|---------------------|
|--------------------|---------------------|
|----9-7----9-7----9-|----9-7-10--(10)-12--|
|---10-9---10-9---10-|---10-9-12--(12)-14--|
|--------------------|---------------------|
|--------------------|---------------------|
|
| E  E E E  E E E  E   E  E E  Q   +E   Q
|--------------------|---------------------|
|--------------------|---------------------|
|--------------------|---------------------|
|----7-5----7-5----7-|----7-5--7---(7)--9--|
|----7-5----7-5----7-|----7-5--8---(8)-10--|
|--------------------|---------------------|


  E  E E E  E E E  E   E  E E  Q   +E   Q
|--------------------|---------------------|
|--------------------|---------------------|
|----9-7----9-7----9-|----9-7-12--(12)-10--|
|---10-9---10-9---10-|---10-9-12--(12)-12--|
|--------------------|---------------------|
|--------------------|---------------------|
|
| E  E E E  E E E  E   E  E E  Q   +E   Q
|--------------------|---------------------|
|--------------------|---------------------|
|--------------------|---------------------|
|----7-5----7-5----7-|----7-5-10--(10)--9--|
|----7-5----7-5----7-|----7-5-10--(10)--8--|
|--------------------|---------------------|


  E  E E E  E E E  E   E  E E E  E E  E E
|--------------------|--------------------|
|--------------------|--------------------|
|----9-7----9-7---12-|---14---------------|
|---10-9---10-9---14-|---15-------------7-|
|--------------------|-------------7-10---|
|--------------------|--------8-10--------|
|
| E  E E E  E E E  E   E  E E E  E E  E E
|--------------------|--------------------|
|--------------------|--------------------|
|--------------------|--------------------|
|----7-5----7-5----9-|---10---------------|
|----7-5----7-5---10-|---12------5--------|
|--------------------|--------8----0--3-5-|


  E  E E E  E  E E E    E  E E  E  E  E E  E
|--------------------|-----------------------|
|--------------------|-----------------------|
|--------------------|-----------------------|
|---10-7---10----7---|----12-9----12----9----|
|-8------8----10---8-|-10------10----12---10-|
|--------------------|-----------------------|
|
| W                     W
|-1------------------|--3--------------------|
|-1------------------|--3--------------------|
|-2------------------|--4--------------------|
|-3------------------|--5--------------------|
|-3------------------|--5--------------------|
|-1------------------|--3--------------------|


   E  E  E  E  E  E  E  E    E  E  E  E  E  E  E  E
|-------------------------|-------------------------|
|-------------------------|-------------------------|
|-------------------------|-14-10-12----10----------|
|----14-10----14----10-14-|----------14----12-14-10-|
|-12-------12----12-------|-------------------------|
|-------------------------|-------------------------|
|
|  W                         W
|--5----------------------|-------------------------|
|--5----------------------|--6----------------------|
|--5----------------------|--7----------------------|
|--7----------------------|--7----------------------|
|--7----------------------|--5----------------------|
|--5----------------------|--5----------------------|


   E  E E E  E  E E E    E  E E  E  E  E E  E
|---------------------|-----------------------|
|---------------------|-----------------------|
|---------------------|-----------------------|
|----10-7---10----7---|----12-9----12----9----|
|--8------8----10---8-|-10------10----12---10-|
|---------------------|-----------------------|
|
|  W                     W
|---------------------|-----------------------|
|-10------------------|-12--------------------|
|-10------------------|-12--------------------|
|-10------------------|-12--------------------|
|--8------------------|-10--------------------|
|---------------------|-----------------------|


   E  E  E  E  E  E  E  E   S S S S  S  S S S S S S S S S  S  S
|-------------------------|----------------------------------------|
|-------------------------|----------------------------------------|
|-------------------------|-----------------------------------9----|
|----14-10----14----10-14-|-----------------9-------9------9-------|
|-12-------12----12-------|-------7-------7-----7-9---7-9----------|
|-------------------------|-0-5-7----5--7-----7--------------------|
|
|  W                        Q       +E    H               +E
|--5----------------------|----------------------------------------|
|--5----------------------|----------------------------------------|
|--5----------------------|-4-------(4)---4---------------(4)------|
|--7----------------------|-2-------(2)---2---------------(2)------|
|--7----------------------|-0-------(0)----------------------------|
|-------------------------|-0-------(0)---4---------------(4)------|


  E  E E E  E E E  E   E  E E  Q   +E   Q
|--------------------|---------------------|
|--------------------|---------------------|
|----9-7----9-7----9-|----9-7-12--(12)-10--|
|---10-9---10-9---10-|---10-9-12--(12)-12--|
|--------------------|---------------------|
|--------------------|---------------------|
|
| E  E E E  E E E  E   E  E E  Q   +E   Q
|--------------------|---------------------|
|--------------------|---------------------|
|--------------------|---------------------|
|----7-5----7-5----7-|----7-5-10--(10)--9--|
|----7-5----7-5----7-|----7-5-10--(10)--8--|
|--------------------|---------------------|


  E  E E E  E E E  E   E  E E  Q   +E   Q
|--------------------|---------------------|
|--------------------|---------------------|
|----9-7----9-7----9-|----9-7-10--(10)-12--|
|---10-9---10-9---10-|---10-9-12--(12)-14--|
|--------------------|---------------------|
|--------------------|---------------------|
|
| E  E E E  E E E  E   E  E E  Q   +E   Q
|--------------------|---------------------|
|--------------------|---------------------|
|--------------------|---------------------|
|----7-5----7-5----7-|----7-5--7---(7)--9--|
|----7-5----7-5----7-|----7-5--8---(8)-10--|
|--------------------|---------------------|


  E  E E E  E E E  E   E  E E  Q   +E   Q
|--------------------|---------------------|
|--------------------|---------------------|
|----9-7----9-7----9-|----9-7-12--(12)-10--|
|---10-9---10-9---10-|---10-9-12--(12)-12--|
|--------------------|---------------------|
|--------------------|---------------------|
|
| E  E E E  E E E  E   E  E E  Q   +E   Q
|--------------------|---------------------|
|--------------------|---------------------|
|--------------------|---------------------|
|----7-5----7-5----7-|----7-5-10--(10)--9--|
|----7-5----7-5----7-|----7-5-10--(10)--8--|
|--------------------|---------------------|


  E  E E E  E E E  E   E  E E E  E E  E E
|--------------------|--------------------|
|--------------------|--------------------|
|----9-7----9-7---12-|---14---------------|
|---10-9---10-9---14-|---15-------------7-|
|--------------------|-------------7-10---|
|--------------------|--------8-10--------|
|
| E  E E E  E E E  E   E  E E E  E E  E E
|--------------------|--------------------|
|--------------------|--------------------|
|--------------------|--------------------|
|----7-5----7-5----9-|---10---------------|
|----7-5----7-5---10-|---12------5--------|
|--------------------|--------8----0--3-5-|


  E  E E E  E E E  E   E  E E  Q   +E   Q
|--------------------|---------------------|
|--------------------|---------------------|
|----9-7----9-7----9-|----9-7-12--(12)-10--|
|---10-9---10-9---10-|---10-9-12--(12)-12--|
|--------------------|---------------------|
|--------------------|---------------------|
|
| E  E E E  E E E  E   E  E E  Q   +E   Q
|--------------------|---------------------|
|--------------------|---------------------|
|--------------------|---------------------|
|----7-5----7-5----7-|----7-5-10--(10)--9--|
|----7-5----7-5----7-|----7-5-10--(10)--8--|
|--------------------|---------------------|


  E  E E E  E E E  E   E  E E  Q   +E   Q
|--------------------|---------------------|
|--------------------|---------------------|
|----9-7----9-7----9-|----9-7-10--(10)-12--|
|---10-9---10-9---10-|---10-9-12--(12)-14--|
|--------------------|---------------------|
|--------------------|---------------------|
|
| E  E E E  E E E  E   E  E E  Q   +E   Q
|--------------------|---------------------|
|--------------------|---------------------|
|--------------------|---------------------|
|----7-5----7-5----7-|----7-5--7---(7)--9--|
|----7-5----7-5----7-|----7-5--8---(8)-10--|
|--------------------|---------------------|


  E  E E E  E E E  E   E  E E  Q   +E   Q
|--------------------|---------------------|
|--------------------|---------------------|
|----9-7----9-7----9-|----9-7-12--(12)-10--|
|---10-9---10-9---10-|---10-9-12--(12)-12--|
|--------------------|---------------------|
|--------------------|---------------------|
|
| E  E E E  E E E  E   E  E E  Q   +E   Q
|--------------------|---------------------|
|--------------------|---------------------|
|--------------------|---------------------|
|----7-5----7-5----7-|----7-5-10--(10)--9--|
|----7-5----7-5----7-|----7-5-10--(10)--8--|
|--------------------|---------------------|


  E  E E E  E E E  E   E  E E E  E E  E E
|--------------------|--------------------|
|--------------------|--------------------|
|----9-7----9-7---12-|---14---------------|
|---10-9---10-9---14-|---15-------------7-|
|--------------------|-------------7-10---|
|--------------------|--------8-10--------|
|
| E  E E E  E E E  E   E  E E E  E E  E E
|--------------------|--------------------|
|--------------------|--------------------|
|--------------------|--------------------|
|----7-5----7-5----9-|---10---------------|
|----7-5----7-5---10-|---12------5--------|
|--------------------|--------8----0--3-5-|


  E  E E E  E  E E E    E  E E  E  E  E E  E
|--------------------|-----------------------|
|--------------------|-----------------------|
|--------------------|-----------------------|
|---10-7---10----7---|----12-9----12----9----|
|-8------8----10---8-|-10------10----12---10-|
|--------------------|-----------------------|
|
| W                     W
|-1------------------|--3--------------------|
|-1------------------|--3--------------------|
|-2------------------|--4--------------------|
|-3------------------|--5--------------------|
|-3------------------|--5--------------------|
|-1------------------|--3--------------------|


   E  E  E  E  E  E  E  E    E  E  E  E  E  E  E  E
|-------------------------|-------------------------|
|-------------------------|-------------------------|
|-------------------------|-14-10-12----10----------|
|----14-10----14----10-14-|----------14----12-14-10-|
|-12-------12----12-------|-------------------------|
|-------------------------|-------------------------|
|
|  W                         W
|--5----------------------|-------------------------|
|--5----------------------|--6----------------------|
|--5----------------------|--7----------------------|
|--7----------------------|--7----------------------|
|--7----------------------|--5----------------------|
|--5----------------------|--5----------------------|


   E  E E E  E  E E E    E  E E  E  E  E E  E
|---------------------|-----------------------|
|---------------------|-----------------------|
|---------------------|-----------------------|
|----10-7---10----7---|----12-9----12----9----|
|--8------8----10---8-|-10------10----12---10-|
|---------------------|-----------------------|
|
|  W                     W
|---------------------|-----------------------|
|-10------------------|-12--------------------|
|-10------------------|-12--------------------|
|-10------------------|-12--------------------|
|--8------------------|-10--------------------|
|---------------------|-----------------------|


   E  E  E  E  E  E  E  E   S S  S  S S S S  S  S S S S S S S S
|-------------------------|--------------------------------------|
|-------------------------|-----------------------------------8--|
|-------------------------|------------------7------4-7---4-7----|
|----14-10----14----10-14-|---------5-----5-------5-----5--------|
|-12-------12----12-------|---3--5----3-5-------5----------------|
|-------------------------|-3------------------------------------|
|
|  W                        Q   +E  H       +E
|--5----------------------|---------3-------(3)------------------|
|--5----------------------|---------3-------(3)------------------|
|--5----------------------|-4---(4)-4-------(4)------------------|
|--7----------------------|---------5-------(5)------------------|
|--7----------------------|-3---(3)-5-------(5)------------------|
|-------------------------|-3---(3)-3-------(3)------------------|


   ~~
   W                   +E   S  S  E  E  E  E  E  E
|-------------------|------------------------------|
|-------------------|------------11h13p11----------|
|-12----------------|-(12)-10-12----------12-10-12-|
|-------------------|------------------------------|
|-------------------|------------------------------|
|-------------------|------------------------------|
|
|  Q  Q  +E  Q  +E      Q         E  Q     E  Q
|-------------------|------------------------------|
|-------------------|------------------------------|
|-------------------|------------------------------|
|--1--1--(1)-1--(1)-|---1------------1-----1--1----|
|--3--3--(3)-3--(3)-|---3------------3-----3--3----|
|--3--3--(3)-3--(3)-|---3------------3-----3--3----|


   ~~                                      ~~
   Q   E  +S   T  T  E   E  E  E     E  E  H       E  E
|-13--11-(11)-10h11-10------------|----------------------|
|-----------------------11--------|----------------------|
|--------------------------12p10--|-------12------10-----|
|---------------------------------|-13p10------------13--|
|---------------------------------|----------------------|
|---------------------------------|----------------------|
|
|  Q   Q            +E   Q    +E     Q     E Q  E  Q
|---------------------------------|----------------------|
|---------------------------------|----------------------|
|--3---3------------(3)--3----(3)-|--3-------3--3--3-----|
|--5---5------------(5)--5----(5)-|--5-------5--5--5-----|
|--5---5------------(5)--5----(5)-|--5-------5--5--5-----|
|--3---3------------(3)--3----(3)-|--3-------3--3--3-----|


                                                       T T  T T  T T  T T  T T  T T  T T  T T
   S  S  S  S  S  S  S  S  S   S  S  S  S  S  S   S    S S  S S  S S  S S  S S  S S  S S  S S
|-----------------------------------10-11-10-11--13-|-15-8-16-8-18-8-16-8-15-8-13-8-15-8-16-8-|
|-----------------------------11-13-----------------|-----------------------------------------|
|-------------------10-12-13------------------------|-----------------------------------------|
|-12-10----10-12-13---------------------------------|-----------------------------------------|
|-------11------------------------------------------|-----------------------------------------|
|---------------------------------------------------|-----------------------------------------|
|
|  Q           Q          +E      Q          +E        E    E    E    Q         E    Q
|---------------------------------------------------|-----------------------------------------|
|---------------------------------------------------|-----------------------------------------|
|--5-----------5----------(5)-----5----------(5)----|--5----5---------5---------5----5--------|
|--6-----------6----------(6)-----6----------(6)----|--6----6---------6---------6----6--------|
|--6-----------6----------(6)-----6----------(6)----|--6----6---------6---------6----6--------|
|--4-----------4----------(4)-----4----------(4)----|--4----4---------4---------4----4--------|


         ~~~~~~~~~~~~~~           ~~~~~~~~~~~~
   S  S  H         +Q    S   S    H       +Q       Q
|-15-16-15--------(15)---------|-20------(20)-----19---|
|-----------------------18S=20-|-----------------------|
|------------------------------|-----------------------|
|------------------------------|-----------------------|
|------------------------------|-----------------------|
|------------------------------|-----------------------|
|
|  Q       Q  +E    Q   +E        Q  E Q      +E   E
|------------------------------|-----------------------|
|------------------------------|-----------------------|
|------------------------------|-----------------------|
|--5-------5--(5)---5---(5)----|--0----0------(0)--0---|
|--2-------2--(2)---2---(2)----|--3----3------(3)--8---|
|--3-------3--(3)---3---(3)----|--3----3------(3)--7---|


               ~~~
   Q   +E   E  H         E E  E   E  E  E  E  E
|-17--(17)-------------|---------------------10-|
|----------17-13-------|-----10S=12-13-12-13----|
|----------------------|---9--------------------|
|----------------------|------------------------|
|----------------------|------------------------|
|----------------------|------------------------|
|
|  Q    Q     +E  Q  E   Q   +E   Q     E  Q
|----------------------|------------------------|
|----------------------|------------------------|
|--5----5-----(5)-5--5-|-5---(5)--5-----5--5----|
|--7----7-----(7)-7--7-|-7---(7)--7-----7--7----|
|--7----7-----(7)-7--7-|-7---(7)--7-----7--7----|
|--5----5-----(5)-5--5-|-5---(5)--5-----5--5----|


         ~~~~~~~~~~~~~~          ~~
   S  S  H         +Q    S  S    W
|-----------------------------|-15------------|
|-12h13-12--------(12)-----12-|---------------|
|-----------------------14----|---------------|
|-----------------------------|---------------|
|-----------------------------|---------------|
|-----------------------------|---------------|
|
|  Q       Q  +E    Q    E       Q  E Q  E Q
|-----------------------------|---------------|
|-----------------------------|---------------|
|-----------------------------|---------------|
|--2-------2--(2)---2----2----|--2--2-2--2-2--|
|--2-------2--(2)---2----2----|--2--2-2--2-2--|
|--3-------3--(3)---3----3----|--3--3-3--3-3--|


          ~~          ~~~~~~~~~~       ~~
  E E  E  Q     E  E  E     +E  E  E   Q  E  E  E    S  S  S  S  S  S  S  S  S   S  S  S  S  S  S  S
|--------12----------12--|-(12)-------12-------12-|-16-13-16-13-12-13-12----12-----------------------|
|-----10----------10-----|--------10--------10----|----------------------15-----15-13-15-13-12-13-12-|
|---9-----------9--------|------9---------9-------|--------------------------------------------------|
|------------------------|------------------------|--------------------------------------------------|
|------------------------|------------------------|--------------------------------------------------|
|------------------------|------------------------|--------------------------------------------------|
|
| Q    Q    +E  Q    +E      Q    +E   Q  E  Q       Q           Q          +E      Q           E
|------------------------|------------------------|--------------------------------------------------|
|------------------------|------------------------|--------------------------------------------------|
|-5----5----(5)-5----(5)-|---5----(5)--5--5--5----|--1-----------1----------(1)-----1-----------1----|
|-7----7----(7)-7----(7)-|---7----(7)--7--7--7----|--2-----------2----------(2)-----2-----------2----|
|-7----7----(7)-7----(7)-|---7----(7)--7--7--7----|--2-----------2----------(2)-----2-----------2----|
|-5----5----(5)-5----(5)-|---5----(5)--5--5--5----|--0-----------0----------(0)-----0-----------0----|


   S  S  S  S  S  S  S  S  S  S  S  S  S  S  S  S
|----------------------------------------------------|
|----12----------------------------------------------|
|-14----14-13-14-13----13----------------------------|
|-------------------15----15-14-15-14-12-14-12-------|
|----------------------------------------------14----|
|----------------------------------------------------|
|
|  Q           E     Q           E     E     E
|----------------------------------------------------|
|----------------------------------------------------|
|--4-----------4-----1-------------------------------|
|--2-----------2-----2-------------------------------|
|--0-----------0-----2-----------2-----3-----5-------|
|--0-----------0-----0-----------4-----5-----7-------|


Добавлено: 26.06.2015
Другие материалы по этой песне:

Страница создана 16.06.2015
http://primanota.ru/misc-computer-games/double-dragon-mission-1-chords.htm
Привет, Гость.
Предлагаем пройти революционный курс по гитаре.
Подарок от PrimaNota.Ru, забирай!