PrimaNota.ru - самый крупный в мире бесплатный архив песенных текстов, аккордов, табулатур и нот


Misc Computer Games - Donkey Kong Country - Crankys Theme - бас-таба, видео

Регистрация Запомнить меня
Войти через:  Facebook Google Twitter Vk Yandex Mail.ru

Misc Computer Games - Donkey Kong Country - Crankys Theme - бас-таба, видео

Печатать
Просмотров: 90
Donkey Kong Country - Cranky's Theme

Tabbed by: Ashy (XxThreeCheersxX)
E-mail: burdickash@gmail.com

Tuning: Standard

Part I (intro)
G|------------------------------------------------------|
D|-------------------0----------------------------------|
A|--------0-----1--1----1-------0-----2-3-3-1-1-0-0-----|
E|-8\1--1----1-------------1--1----1----------------3-3-|

Part II (note: those are 13's at the end, not 1's and 3's)
G|----------------------------------------------------------------------------------------------|
D|-----------------0---------------------2---------------------0--------------------------------|
A|------0-----1--1----1-------1-----3--3----3--0--0-3--0--1--1----1-------3--3------------------|
E|-1--1----1-------------3--3----3-----------------------------------1--1-------1--13-13-13--8\-|

Just part II as much as you want; happy playing!

| /  slide up
| \  slide down
| h  hammer-on
| p  pull-off
| ~  vibrato
| +  harmonic
| x  Mute note
===============================================================================
Добавлено: 16.06.2015
Другие материалы по этой песне:

Страница создана 16.06.2015
http://primanota.ru/misc-computer-games/donkey-kong-country-crankys-theme-chords.htm
Привет, Гость.
Предлагаем пройти революционный курс по гитаре.
Подарок от PrimaNota.Ru, забирай!