PrimaNota.ru - самый крупный в мире бесплатный архив песенных текстов, аккордов, табулатур и нот


Misc Computer Games - Donkey Kong Country - Candys Theme - бас-таба, видео

Регистрация Запомнить меня
Войти через:  Facebook Google Twitter Vk Yandex Mail.ru

Misc Computer Games - Donkey Kong Country - Candys Theme - бас-таба, видео

Печатать
Просмотров: 92
Donkey Kong Country - Candy's Theme

Tabbed by: Ashy (XxThreeCheersxX)
E-mail: burdickash@gmail.com

Tuning: Drop D

Part I x 2
G|------------------------------------------------------------------------------------------|
D|--------------------------------------------------------------------0---------------------|
A|-----------0--0-1--2--------------0--0-----------------0--0-1--2-------2--0----2-0--------|
D|-2----5-----------------2----5---------5--2----2----5-------------------------------5--2--|

Part II
G|------------------------------------------------|
D|-----------0--0-1--2--------------0--0----------|
A|-3----3-----------------3----3---------3--0-----|
D|---------------------------------------------5--|

Part I x 1

Part II x 1

Part III
G|-------------------------|
D|----2-----0--------------|
A|-------------3--3--2--2--| x 3
D|-2-----0-----------------|

G|----2------------|
D|-------2--2------|
A|-0---------------|
D|------------2----|

Part IV x 2
G|-------------------------------------------------------------------------------4--2-----------------|
D|----------0----0-0--2--4-----------0--0-2--4-------------------0----0-0--2--4--------4----2--2------|
A|-2--2---------------------2--2------------------2----2-----------------------------------------2----|
D|-------0------------------------0---------------------------0---------------------------------------|

Happy playing!

| /  slide up
| \  slide down
| h  hammer-on
| p  pull-off
| ~  vibrato
| +  harmonic
| x  Mute note
===============================================================================
Добавлено: 16.06.2015
Другие материалы по этой песне:
  • Аккорды и текст

Страница создана 16.06.2015
http://primanota.ru/misc-computer-games/donkey-kong-country-candys-theme-chords.htm
Привет, Гость.
Предлагаем пройти революционный курс по гитаре.
Подарок от PrimaNota.Ru, забирай!