PrimaNota.ru - самый крупный в мире бесплатный архив песенных текстов, аккордов, табулатур и нот


Misc Computer Games - Donkey Kong Country - Simian Segue - бас-таба, видео

Регистрация Запомнить меня
Войти через:  Facebook Google Twitter Vk Yandex Mail.ru

Misc Computer Games - Donkey Kong Country - Simian Segue - бас-таба, видео

Печатать
Просмотров: 106
Donkey Kong Country - Simian Segue

Tabbed by: XxThreeCheersxX
E-mail: burdickash@gmail.com

Tuning: Standard

Part I
G|------------------------|
D|------------------------|
A|-0---------0------------| x 6
E|------0---------0--2-4--|

Part II
G|---------------------------------------------------------------------------------------------|
D|-0---------0-----------------------------------0---------0------------0---------0------------|
A|------0---------0--2-4--0---------0-----------------0---------0--2-4-------0---------0--2-4--|
E|-----------------------------0---------0--2-4------------------------------------------------|

Part I 

Part III
G|------------------------|
D|-0---------0------------|
A|------0---------0--2-4--| x 6
E|------------------------|

Part IV
G|-0---------0------------|
D|------0---------0--2-4--|
A|------------------------| x 2
E|------------------------|

G|------------------------|
D|-0---------0------------|
A|------0---------0--2-4--| x 6
E|------------------------|

Happy playing!

| /  slide up
| \  slide down
| h  hammer-on
| p  pull-off
| ~  vibrato
| +  harmonic
| x  Mute note
===============================================================================
Добавлено: 16.06.2015
Другие материалы по этой песне:
  • Аккорды и текст

Страница создана 16.06.2015
http://primanota.ru/misc-computer-games/donkey-kong-country-simian-segue-chords.htm
Привет, Гость.
Предлагаем пройти революционный курс по гитаре.
Подарок от PrimaNota.Ru, забирай!