PrimaNota.ru - самый крупный в мире бесплатный архив песенных текстов, аккордов, табулатур и нот


Misc Computer Games - Donkey Kong Country - Bonus Room Blitz - бас-таба, видео

Регистрация Запомнить меня
Войти через:  Facebook Google Twitter Vk Yandex Mail.ru

Misc Computer Games - Donkey Kong Country - Bonus Room Blitz - бас-таба, видео

Печатать
Просмотров: 110
Уроки эстрадного вокала в Санкт-Петербурге
Donkey Kong Country - Bonus Room Blitz

Tabbed by: Ashy (XxThreeCheersxX)
E-mail: burdickash@gmail.com

Tuning: BEAD (or a five string in standard)

Intro
D|------------------------|
A|--------------3-3-3-----|
E|-1--1-3--3-----------3--|
B|-----------1------------|

Part I
D|---------------------------------------------------------------------------------------|
A|-----------------------------------------------------------------------------3-3-3-----|
E|-----------3--3-3--4--5--5-5--5-1--1-1--3------------3--3-3--3--1--1-3--3-----------3--|
B|-1--1-1--1---------------------------------1--1-1--1----------------------1------------|

Part II
D|-----------------------------------------------------------------------------------------|
A|--------------------------------------------------------------------------------3-3-3----|
E|-----------0--0-0--0--0--1--1-1--1-2--2-2--2------------3--3-3--3--1--1-3--3-----------3-|
B|-1--1-1--1------------------------------------1--1-1--1----------------------1-----------|

Happy playing!

| /  slide up
| \  slide down
| h  hammer-on
| p  pull-off
| ~  vibrato
| +  harmonic
| x  Mute note
===============================================================================
Добавлено: 16.06.2015
Другие материалы по этой песне:
  • Аккорды и текст

Страница создана 16.06.2015
http://primanota.ru/misc-computer-games/donkey-kong-country-bonus-room-blitz-chords.htm
Привет, Гость.
Предлагаем пройти революционный курс по гитаре.
Подарок от PrimaNota.Ru, забирай!