PrimaNota.ru - самый крупный в мире бесплатный архив песенных текстов, аккордов, табулатур и нот


Misc Computer Games - Deja Vu - Joes Bar - таба, бас-таба, видео

Регистрация Запомнить меня
Войти через:  Facebook Google Twitter Vk Yandex Mail.ru

Misc Computer Games - Deja Vu - Joes Bar - таба, бас-таба, видео

Печатать
Просмотров: 99
Gtr I (E A D G B E) - 'Untitled'

  Q.=90
 6/8
  Gtr I
  E  E  E E E E    H     +Q     E  E  E E E E    H     +Q
|---------------|-------------|---------------|------------|
|-----------8---|-------------|-----------8---|------------|
|---------8---8-|-10----(10)--|---------8---8-|-10----(10)-|
|------10-------|-------------|------10-------|------------|
|---10----------|-------------|---10----------|------------|
|---------------|-------------|---------------|------------|


  E  E  E E E E    Q   E E  E E    Q   E E  E E    E  E Q   E E
|---------------|---------------|---------------|----------------|
|-----------8---|---------------|---------------|----------------|
|---------8---8-|-10--10-8----8-|-10--10-8----8-|-11-10-8--------|
|------10-------|----------10---|----------10---|----------10-8--|
|---10----------|---------------|---------------|----------------|
|---------------|---------------|---------------|----------------|


   E  E  E E E E    H     +Q     E  E  E E E E    H     +Q
|----------------|-------------|---------------|------------|
|------------8---|-------------|-----------8---|------------|
|----------8---8-|-10----(10)--|---------8---8-|-10----(10)-|
|-10----10-------|-------------|------10-------|------------|
|----10----------|-------------|---10----------|------------|
|----------------|-------------|---------------|------------|


  E  E  E E E E    Q   E E  E E    Q   E E  E E    E  E Q   E E
|---------------|---------------|---------------|----------------|
|-----------8---|---------------|---------------|----------------|
|---------8---8-|-10--10-8----8-|-10--10-8----8-|-11-10-8--------|
|------10-------|----------10---|----------10---|----------10-8--|
|---10----------|---------------|---------------|----------------|
|---------------|---------------|---------------|----------------|


                      ~~~~~~~~~~~~~~~~~~           ~~~~~~~~~
   Q   +E   E E  E    H     +Q      +Q   Q   E E   H    +Q
|------------------|-------------|-------8-------|----------|
|------------------|-11----(11)--|-(11)-----11-9-|-8----(8)-|
|-------------8----|-------------|---------------|----------|
|-10--(10)-10---10-|-------------|---------------|----------|
|------------------|-------------|---------------|----------|
|------------------|-------------|---------------|----------|


   ~~~              ~~~~~~~~~~~~~~~~~~
  +Q   E  E E  E    H     +Q      +Q   Q   E E   H    +Q
|----------------|-------------|-------8-------|----------|
|-(8)------------|-11----(11)--|-(11)-----11-9-|-8----(8)-|
|-----------8----|-------------|---------------|----------|
|--------10---10-|-------------|---------------|----------|
|----------------|-------------|---------------|----------|
|----------------|-------------|---------------|----------|


  E  E  E E E E    H     +Q     E  E  E E E E    H     +Q
|---------------|-------------|---------------|------------|
|-8---------8---|-------------|-----------8---|------------|
|---------8---8-|-10----(10)--|---------8---8-|-10----(10)-|
|------10-------|-------------|------10-------|------------|
|---10----------|-------------|---10----------|------------|
|---------------|-------------|---------------|------------|


  E  E  E E E E    Q   E E  E E    Q   E E  E E    E  E Q   E E    H    +Q
|---------------|---------------|---------------|---------------|-----------|
|-----------8---|---------------|---------------|---------------|-----------|
|---------8---8-|-10--10-8----8-|-10--10-8----8-|-11-10-8-------|--8----(8)-|
|------10-------|----------10---|----------10---|----------10-8-|-10---(10)-|
|---10----------|---------------|---------------|---------------|-----------|
|---------------|---------------|---------------|---------------|-----------|
Добавлено: 27.06.2015
Другие материалы по этой песне:

Страница создана 08.05.2015
http://primanota.ru/misc-computer-games/deja-vu-joes-bar-chords.htm
Привет, Гость.
Предлагаем пройти революционный курс по гитаре.
Подарок от PrimaNota.Ru, забирай!