PrimaNota.ru - самый крупный в мире бесплатный архив песенных текстов, аккордов, табулатур и нот


Misc Computer Games - Clash At Demonhead Theme - таба, бас-таба, видео

Регистрация Запомнить меня
Войти через:  Facebook Google Twitter Vk Yandex Mail.ru

Misc Computer Games - Clash At Demonhead Theme - таба, бас-таба, видео

Печатать
Просмотров: 80
Gtr I (E A D G B E)

  Gtr I
  E E E E E E E E   E E  E  E  E  E E E   E E E E E E S S S S   +H     S S S S
|-----------------|---------------------|---------------------|----------------|
|-----------------|---------------------|---------------------|----------------|
|-----------------|---------------------|---------------------|----------------|
|-----7-7---------|-9-9-------10-10-7-7-|-----7-7-------------|----------------|
|---------8-8-----|-----10-10-----------|-------------6-5-3-6-|-(6)--------3-5-|
|-8-8---------8-8-|---------------------|-8-8-----8-8---------|--------5-6-----|


  E E E E E E E E   E E  E  E  E  E E E   E E E E E E S S S S   +H     S S S S
|-----------------|---------------------|---------------------|----------------|
|-----------------|---------------------|---------------------|----------------|
|-----------------|---------------------|---------------------|----------------|
|-----7-7---------|-9-9-------10-10-7-7-|-----7-7-------------|----------------|
|---------8-8-----|-----10-10-----------|-------------6-5-3-6-|-(6)--------3-5-|
|-8-8---------8-8-|---------------------|-8-8-----8-8---------|--------5-6-----|


Добавлено: 26.06.2015
Другие материалы по этой песне:
  • Аккорды и текст

Страница создана 26.06.2015
http://primanota.ru/misc-computer-games/clash-at-demonhead-theme-chords.htm
Привет, Гость.
Предлагаем пройти революционный курс по гитаре.
Подарок от PrimaNota.Ru, забирай!