PrimaNota.ru - самый крупный в мире бесплатный архив песенных текстов, аккордов, табулатур и нот


Misc Computer Games - Donkey Kong - Hammer - бас-таба, видео

Регистрация Запомнить меня
Войти через:  Facebook Google Twitter Vk Yandex Mail.ru

Misc Computer Games - Donkey Kong - Hammer - бас-таба, видео

Печатать
Просмотров: 112
Donkey Kong - Hammer Power-Up

Tabbed by: Ashy (XxThreeCheersxX)
E-mail: burdickash@gmail.com

Tuning: Standard

G|---------------------------------------------------|
D|--------------2-----2-----2--2-2-2--2--5--2--5--2--|
A|-3--3-3-3--3-----3-----3---------------------------| 
E|---------------------------------------------------|

As a bonus, here's the game start jingle (play the 4's very fast)
G|--------------------------------|
D|------0-1-----444444444444-5~---|
A|-3---------3--------------------|
E|--------------------------------|

And last but not least, the stage start tune (play the F scale at the end very fast):
G|-------------------------------------|
D|----------------------------0-2-3----|
A|-----0-3---0---0------0-1-3----------|
E|-3-----------3---1--3----------------|

Happy playing!

| /  slide up
| \  slide down
| h  hammer-on
| p  pull-off
| ~  vibrato
| +  harmonic
| x  Mute note
===============================================================================
Добавлено: 16.06.2015
Другие материалы по этой песне:
  • Аккорды и текст

Страница создана 16.06.2015
http://primanota.ru/misc-computer-games/donkey-kong-hammer-chords.htm
Привет, Гость.
Предлагаем пройти революционный курс по гитаре.
Подарок от PrimaNota.Ru, забирай!