PrimaNota.ru - самый крупный в мире бесплатный архив песенных текстов, аккордов, табулатур и нот


Misc Computer Games - Chrono Trigger - Tyrano Castle - бас-таба, видео

Регистрация Запомнить меня
Войти через:  Facebook Google Twitter Vk Yandex Mail.ru

Misc Computer Games - Chrono Trigger - Tyrano Castle - бас-таба, видео

Печатать
Просмотров: 85
Уроки эстрадного вокала в Санкт-Петербурге
Chrono Trigger - Tyrano Castle

Tabbed by: XxThreeCheersxX
E-mail: burdickash@gmail.com

Tuning: Drop D

Part I
G|-----------------------------------------------------------------------|
D|-----------------------------0-----------------------------------------|
A|---------------------0-1--3--------------------------0~----------------|
D|-5~----------------5------------4--5~----------------------------------|

G|---------------------------------------------------------------------------------|
D|----------------------------------------------------------5~---------------------|
A|---------------------0-1--3--1-0----------------3~------------------5------------|
D|-5~----------------5-------------5-3--1~-------------------------------5~--------|

Part II x 2
G|--------------------------------------------------------------------------------------------|
D|------------------------5----------------------------8--------------------------------------|
A|--------------------------------------------------------------------------------------------|
D|-5--5-5-5--5-5-5--5-5-5---5-5-8--8-8-8--8-8-8--8-8-8---8-8-11--11-11-11--11-11-11--11-11-11-|

G|----------------------------------|
D|------------8~--------6-----------|
A|------------------------8-6-4-----|
D|-6--7-8--8--------------------6-7-|

Part III
G|-----------------------------------------------------------|
D|-------------------2-4-2-1--1-------------------1-2-4------|
A|----------4-1-2--2---------------------4-1-2--2-------3----|
D|-2--2-2-2---------------------2--2-2-2-------------------3-|
                                                                           x 2
G|--------------------------------------------------6-6-----|
D|-------------------2-4-2-1--0-------------------------4---|
A|----------4-1-2--2------------4--4-1--2-3-4x--4x--------4-|
D|-2--2-2-2-------------------------------------------------|

G|-----------------------|
D|-----------------------|
A|-----------------------|
D|-5~--------/17~--------|

Part IV (no bass until the very end)
G|------------------|
D|-----6------7-----|
A|------------------|
D|-5-6----6-7----8\-|

Happy playing!

| /  slide up
| \  slide down
| h  hammer-on
| p  pull-off
| ~  vibrato
| +  harmonic
| x  Mute note
===============================================================================
Добавлено: 26.06.2015
Другие материалы по этой песне:
  • Аккорды и текст

Страница создана 26.06.2015
http://primanota.ru/misc-computer-games/chrono-trigger-tyrano-castle-chords.htm
Привет, Гость.
Предлагаем пройти революционный курс по гитаре.
Подарок от PrimaNota.Ru, забирай!