PrimaNota.ru - самый крупный в мире бесплатный архив песенных текстов, аккордов, табулатур и нот


Misc Computer Games - Donkey Kong 64 - K Lumsys Theme - бас-таба, видео

Регистрация Запомнить меня
Войти через:  Facebook Google Twitter Vk Yandex Mail.ru

Misc Computer Games - Donkey Kong 64 - K Lumsys Theme - бас-таба, видео

Печатать
Просмотров: 109
Уроки эстрадного вокала в Санкт-Петербурге
Grant Kirkhope - DK 64 - K. Lumsy's Theme

Tabbed by: Ashy (XxThreeCheersxX)
E-mail: burdickash@gmail.com

Tuning: Five String in Standard (or a four string in BEAD; you only need a low D though, if you want,
you can just transcribe it to drop D, just add plus 2 to every number on the E string)

Part I 
G|---------------------------------------|
D|------5--------------------------------|
A|-3-------6-3--------------3--6-5--2----|
E|----------------3----4--6--------------|
B|---------------------------------------|

G|-----------------------------------------|
D|------5-------------3-5--6-5--3-5--------|
A|-3-------6-3----5-6----------------------|
E|-----------------------------------------|
B|-----------------------------------------|

G|---------------------------------------|
D|------5--------------------------------|
A|-3-------6-3--------------3--6-5--2----|
E|----------------3----4--6--------------|
B|---------------------------------------|

G|----------------------------------------|
D|----3-5--6-5--3-------------------------|
A|-6--------------6--5-6--5-3--2-3--------|
E|----------------------------------------|
B|----------------------------------------|

Part II
G|------------------------------------------------------------------|
D|-------------------3----------------------------------------------|
A|-2----2----2--3-5----6--5--5-3----3-2----2----2--3-5-6--3---------|
E|------------------------------------------------------------------|
B|------------------------------------------------------------------|

G|--------------------------------------------------------------|
D|-------------------3--------------5----5-3----3---------------|
A|-2----2----2--3-5----6--5--5-3------------------6----6-5----5-|
E|--------------------------------------------------------------|
B|--------------------------------------------------------------|


G|---------------------------------------|
D|------5--------------------------------|
A|-3-------6-3--------------3--6-5--2----|
E|----------------3----4--6--------------|
B|---------------------------------------|


G|----------------------------------------|
D|----3-5--6-5--3-------------------------|
A|-6--------------6--5-6--5-3--2-3--------|
E|----------------------------------------|
B|----------------------------------------|


Part III (melody no longer in the bass)
G|-------------------------------------------------------|        G|------------| 
D|-------------------------------------------------------|        D|------------|
A|-3------3------3------3--------------------3------3----| x 2    A|---3-----3--|
E|------3------3------3------3-4----4-3----3------3------|        E|-3----3-----|
B|-------------------------------------------------------|        B|------------|

Part IV
G|-------------------------------------------------------------------------------------------------|
D|-------------------------------------------------------------------------------------------------|
A|---------------3------3----3---------------3------3----3---------------3------3----3--------3----|
E|-3------3-----------3--------3------3-----------3--------3------3-----------3--------3----3------|
B|------3------3--------------------3------3--------------------3------3---------------------------|

G|-------------------------------------------------------|        G|------------| 
D|-------------------------------------------------------|        D|------------|
A|-3------3------3------3--------------------3------3----| x 1    A|---3-----3--|
E|------3------3------3------3-4----4-3----3------3------|        E|-3----3-----|
B|-------------------------------------------------------|        B|------------|

Happy playing!

| /  slide up
| \  slide down
| h  hammer-on
| p  pull-off
| ~  vibrato
| +  harmonic
| x  Mute note
===============================================================================
Добавлено: 28.08.2015
Другие материалы по этой песне:
  • Аккорды и текст

Страница создана 28.08.2015
http://primanota.ru/misc-computer-games/donkey-kong-64-k-lumsys-theme-chords.htm
Привет, Гость.
Предлагаем пройти революционный курс по гитаре.
Подарок от PrimaNota.Ru, забирай!