PrimaNota.ru - самый крупный в мире бесплатный архив песенных текстов, аккордов, табулатур и нот


Misc Computer Games - Earthbound - Boy Meets Girl - бас-таба, видео

Регистрация Запомнить меня
Войти через:  Facebook Google Twitter Vk Yandex Mail.ru

Misc Computer Games - Earthbound - Boy Meets Girl - бас-таба, видео

Печатать
Просмотров: 113
Earthbound - Boy Meets Girl

Tabbed by: AShy (XxThreeCheersxX)
E-mail: burdickash@gmail.com

Tuning: Standard

Part I (come in at 0:11)
G|-------------7-7----------------|
D|-9-9-10--10---------7-----------|
A|-----------------------9--------|
E|--------------------------10----|

Part II
G|---------------------------------------------------|
D|----------------------------2----------------------|
A|--------0-2x-------------------2-------0--2--------|
E|-3----3---------------------------0----------------|

Part III
G|-------------------------------------------------|
D|-------------2-----------------------2-----------|
A|-3~----5~-------3--5~----3~----5~-------3--5~----|
E|-------------------------------------------------|

Part II x 1

Part IV
G|------------------------------------------------|
D|-------------5-----------5----------------------|
A|-3~----5~-------3--5~------5-2------------------|
E|--------------------------------0--2--3~--------|

Part V
G|-------------------------------------------------------------|
D|-------------------------------------------------------------|
A|-----------------3--3--3-3----3-5--5--5-5--------------------|
E|-0--0----2----3---------------------------5-5-3--3----3-2----|

G|--------------------------------------------------------|
D|-------2------------------------------------------------|
A|------------------------2-4-5--5---5--5---5--5--5-5-5-5-|
E|-0--0----0-2-3-5--5--5-----------5------5---------------|

G|-----------4-5---|
D|-----4---7-----7-|
A|-5-7---5---------|
E|-----------------|

Part VI
G|------------------4~--------------9--7----------------|
D|-5~---------7~----------5~--------------10--9--7------|
A|---------5----------------------------------------10--|
E|------------------------------------------------------|

Repeat back to Part II

Happy playing!

| /  slide up
| \  slide down
| h  hammer-on
| p  pull-off
| ~  vibrato
| +  harmonic
| x  Mute note
===============================================================================
Добавлено: 28.08.2015
Другие материалы по этой песне:
  • Аккорды и текст

Страница создана 28.08.2015
http://primanota.ru/misc-computer-games/earthbound-boy-meets-girl-chords.htm
Привет, Гость.
Предлагаем пройти революционный курс по гитаре.
Подарок от PrimaNota.Ru, забирай!