PrimaNota.ru - самый крупный в мире бесплатный архив песенных текстов, аккордов, табулатур и нот


Misc Computer Games - Donkey Kong 64 - K Rools Theme - бас-таба, видео

Регистрация Запомнить меня
Войти через:  Facebook Google Twitter Vk Yandex Mail.ru

Misc Computer Games - Donkey Kong 64 - K Rools Theme - бас-таба, видео

Печатать
Просмотров: 142
Grant Kirkhope - DK64 - K Rool's Theme

Tabbed by: Ashy (XxThreeCheersxX)
E-mail: burdickash@gmail.com

Tuning: Standard

G|-----------------------------------------|
D|-----------------------------------------|
A|-3--------------4----3----6----2----5----|
E|------3----2-----------------------------|

G|-------------------------------------------------------------|
D|-------------------------------------------------------------|
A|-3~------------------3~------------------3~--------2----3----|
E|-----------2~------------------2~----------------------------|

G|-------------------------------------------------------------|
D|-------------------------------------------------------------|
A|-4~------------------4~------------------4~--------3----4----|
E|-----------3~------------------3~----------------------------|

Repeat ad infinitum!  happy playing

| /  slide up
| \  slide down
| h  hammer-on
| p  pull-off
| ~  vibrato
| +  harmonic
| x  Mute note
===============================================================================
Добавлено: 21.08.2015
Другие материалы по этой песне:
  • Аккорды и текст

Страница создана 21.08.2015
http://primanota.ru/misc-computer-games/donkey-kong-64-k-rools-theme-chords.htm
Привет, Гость.
Предлагаем пройти революционный курс по гитаре.
Подарок от PrimaNota.Ru, забирай!