PrimaNota.ru - самый крупный в мире бесплатный архив песенных текстов, аккордов, табулатур и нот


Misc Computer Games - Earthbound - Battle Against A Weak Opponent - бас-таба, видео

Регистрация Запомнить меня
Войти через:  Facebook Google Twitter Vk Yandex Mail.ru

Misc Computer Games - Earthbound - Battle Against A Weak Opponent - бас-таба, видео

Печатать
Просмотров: 132
Earthbound - Battle Against a Weak Opponent

Tabbed by: Ashy (XxThreeCheersxX)
E-mail: burdickash@gmail.com

Tuning: Standard

Part I (come in at 0:05)
G|----------10-------------------10----------|
D|----10----------10-------10----------10----|
A|-8--------------------8--------------------|
E|-------------------------------------------|

Part II
G|---------------------------------------------------------------------------------------|
D|---------------------------------------------------------------------------------------|
A|-8----6----8----6--7--8----10----8----6--7--8----6----8----6--7--8----10----8----4--5--|
E|---------------------------------------------------------------------------------------|

Part III
G|--------------------------------------------------------------------------------------|
D|--------------------------------------------------------------------------------------|
A|-6----4----6----4--5--6----8----6----4--5--8----6----8----6--7--8----10----8----4--5--|
E|--------------------------------------------------------------------------------------|

Repeat back to the beginning

Happy playing!

| /  slide up
| \  slide down
| h  hammer-on
| p  pull-off
| ~  vibrato
| +  harmonic
| x  Mute note
===============================================================================
Добавлено: 28.08.2015
Другие материалы по этой песне:
  • Аккорды и текст

Страница создана 28.08.2015
http://primanota.ru/misc-computer-games/earthbound-battle-against-a-weak-opponent-chords.htm
Привет, Гость.
Предлагаем пройти революционный курс по гитаре.
Подарок от PrimaNota.Ru, забирай!