PrimaNota.ru - самый крупный в мире бесплатный архив песенных текстов, аккордов, табулатур и нот


Misc Computer Games - Earthbound - Friendly Neighbors - бас-таба, видео

Регистрация Запомнить меня
Войти через:  Facebook Google Twitter Vk Yandex Mail.ru

Misc Computer Games - Earthbound - Friendly Neighbors - бас-таба, видео

Печатать
Просмотров: 64
Earthbound - Friendly Neighbors

Tabbed by: Ashy (XxThreeCheersx)
E-mail: burdickash@gmail.com

Tuning: Standard

G|----------------------------------------------------------|
D|----------------------------------------------------------|
A|-----------10-10-10-10-10---------------------------------|
E|-8----8----------------------8----8--------3----3--6-3----|

G|----------------------------------------------|
D|----------------------------------------------|
A|-----------10-10-10-10-10---------------------|
E|-8----8----------------------8----8~--\\\\\\--|

Repeat x infinity

Happy playing!

| /  slide up
| \  slide down
| h  hammer-on
| p  pull-off
| ~  vibrato
| +  harmonic
| x  Mute note
===============================================================================
Добавлено: 21.08.2015
Другие материалы по этой песне:
  • Аккорды и текст

Страница создана 21.08.2015
http://primanota.ru/misc-computer-games/earthbound-friendly-neighbors-chords.htm
Привет, Гость.
Предлагаем пройти революционный курс по гитаре.
Подарок от PrimaNota.Ru, забирай!