PrimaNota.ru - самый крупный в мире бесплатный архив песенных текстов, аккордов, табулатур и нот


Misc Computer Games - Earthbound - Buy Somethin Will Ya - бас-таба, видео

Регистрация Запомнить меня
Войти через:  Facebook Google Twitter Vk Yandex Mail.ru

Misc Computer Games - Earthbound - Buy Somethin Will Ya - бас-таба, видео

Печатать
Просмотров: 146
Уроки эстрадного вокала в Санкт-Петербурге
Earthbound - Buy Somethin' Will Ya

Tabbed by: Ashy (XxThreeCheersxX)
E-mail: burdickash@gmail.com

Tuning: Standard

Part I
G|--------------------------------------------------------------------------|
D|--------------------------------------------------------------------------|
A|------5----------0--2--3---------3--3--2--0-------5---------5----3--------|
E|-3---------3--3-------------3----------------3---------3------------------|

Part II
G|-----------------------------------------------------------------------------------------5----|
D|-------------------------------------0--2--3--3--3-4--4--5--5--5-7--7--------5--5-----5-------|
A|------5---------5----3---------3--3------------------------------------5--5--------3----------|
E|-3---------3--------------3-------------------------------------------------------------------|

Part III
G|---------------------------------5--------|
D|----------------------------5-------------|
A|------5----------0--2--3------------------|
E|-3---------3--3---------------------------|

Repeat as much as you want.

Happy playing!

| /  slide up
| \  slide down
| h  hammer-on
| p  pull-off
| ~  vibrato
| +  harmonic
| x  Mute note
===============================================================================
Добавлено: 21.08.2015
Другие материалы по этой песне:
  • Аккорды и текст

Страница создана 21.08.2015
http://primanota.ru/misc-computer-games/earthbound-buy-somethin-will-ya-chords.htm
Привет, Гость.
Предлагаем пройти революционный курс по гитаре.
Подарок от PrimaNota.Ru, забирай!