PrimaNota.ru - самый крупный в мире бесплатный архив песенных текстов, аккордов, табулатур и нот


Misc Computer Games - Donkey Kong 64 - Frantic Factory - бас-таба, видео

Регистрация Запомнить меня
Войти через:  Facebook Google Twitter Vk Yandex Mail.ru

Misc Computer Games - Donkey Kong 64 - Frantic Factory - бас-таба, видео

Печатать
Просмотров: 93
Donkey Kong 64 - Frantic Factory (Composed by Grant Kirkhope)  

Tabbed by: XxThreeCheersxX
E-mail: phantomhiveghost@gmail.com

Tuning: Standard

Intro I (Optional, it doesn't really make much sense to play on bass, but it still 
sounds pretty neat)

G|-17----------|      G|-16----------|      G|-17----------17-|      
D|----18-17-18-| x 2  D|----18-17-18-| x 4  D|----18-17-18----| x 1
A|-------------|      A|-------------|      A|----------------|      
E|-------------|      E|-------------|      E|----------------|

Intro II (Same as Intro I)

G|-17----------|      G|19----19-17-|      G|-19-17-------|       G|-17----------17-|      
D|----18-17-18-| x 2  D|---19-------| x 2  D|-------17-18-| x 2   D|----18-17-18----| x 1
A|-------------|      A|------------|      A|-------------|       A|----------------|      
E|-------------|      E|------------|      E|-------------|       E|----------------|

Part I

G|---------------0---|----------------0----|
D|------0~---1~------|-------0~---1~-----4-|
A|--3~-------------3-|---3~----------------|
E|-------------------|---------------------|

G|-----------------------------------0~-----------|
D|-------0------------------------3------3-1--0---|
A|-2~--4----2---0---3~--0------3----------------3-|
E|-------------------------4~---------------------|

Part II

G|--------------------------------------------------------------------------------|
D|--------------------------------------------------------------------------------|
A|----3----3----3----3----3----2----2----2----2----0----0-------3----3----5----5-3|
E|--3----3----3----3----3----3----2----2----2----2----0----0-1----1----3----3-----|

Part III
(Note - x means mute note immediately after playing)

G|------------0--1x---3-1-0x-------0-1-----------------0x------|
D|-----0--1x-------------------3x------1x--3-5-----1-3---------|
A|-3x------------------------------------------4x--------------|
E|---------------------------------------------------------3~--|

G|------------0--1x---3-1-0x-----3x-------------------|
D|-----0--1x------------------4x----4x--------5x------|
A|-3x----------------------------------4x--3x----3x---|
E|----------------------------------------------------|

Then repeat Ad Infintum!  
Sorry if the layout is a tad messy.
Happy playing!
Добавлено: 21.07.2013
Другие материалы по этой песне:

Страница создана 21.07.2013
http://primanota.ru/misc-computer-games/donkey-kong-64-frantic-factory-chords.htm
Привет, Гость.
Предлагаем пройти революционный курс по гитаре.
Подарок от PrimaNota.Ru, забирай!