PrimaNota.ru - самый крупный в мире бесплатный архив песенных текстов, аккордов, табулатур и нот


Misc Computer Games - Legend Of Zelda - Dungeon - бас-таба, видео

Регистрация Запомнить меня
Войти через:  Facebook Google Twitter Vk Yandex Mail.ru

Misc Computer Games - Legend Of Zelda - Dungeon - бас-таба, видео

Печатать
Просмотров: 81
Legend of Zelda (NES) - "Dungeon Theme" by Koji Kondo

Tabbed by: XxThreeCheersxX
E-mail: phantomhiveghost@gmail.com

Tuning: Standard

G|---------7--6---------|---------6--5---------|
D|-5~---8--------4~-----|------6---------------|
A|----------------------|-8~------------7~-----|
E|----------------------|----------------------|

G|-------------8--7-----|-------------7--6-----|
D|----------5-----------|----------5-----------|
A|-6-5-6~---------------|-5-4-5~---------------|
E|----------------------|----------------------|

(Played very fast)
G|---------------------8----8-11-14-11--------------------|
D|-----------7-10-7-10---10------------13-10-13-10--------|
A|----9-12-9---------------------------------------12-10--|
E|-10-----------------------------------------------------|

Happy playing!
Добавлено: 10.07.2013
Другие материалы по этой песне:
  • Аккорды и текст

Страница создана 10.07.2013
http://primanota.ru/misc-computer-games/legend-of-zelda-dungeon-chords.htm
Привет, Гость.
Предлагаем пройти революционный курс по гитаре.
Подарок от PrimaNota.Ru, забирай!