PrimaNota.ru - самый крупный в мире бесплатный архив песенных текстов, аккордов, табулатур и нот


Misc Computer Games - F-zero X - Big Blue - бас-таба, видео

Регистрация Запомнить меня
Войти через:  Facebook Google Twitter Vk Yandex Mail.ru

Misc Computer Games - F-zero X - Big Blue - бас-таба, видео

Печатать
Просмотров: 78
GDAE

This song isn't too terrible to play, but if you aren't fast, or can't be fast, you'll 
have a little trouble.
The rhythm is fairly straightforward, and once you get past the intro and the first 
stretch, it's just repeating to your heart's content.

If you want to get the rhythm down in your head, here's a video of the song: 
http://www.youtube.com/watch?v=Z_HQ66Tj3rg, though the background guitar in the intro is actually 
playing the bass part in this tab. I thought it sounded better, to be honest.

|---------------------------------------------------------------------|
|---------------------------------------------------------------------|
|--2---2-0----0---0-2-----2---2-0----0---0-2-----2---2-0------0---0-2-|
|---------------------------------------------------------------------|

|----------------------------------|
|----------------------------------|
|--2---2-0----0-0---0--------------|
|---------------------2___________-|

|----------------------------------------------------------|
|----------------------------------------------------------|
|--2--2--2--2----2--2--2--2-----2--2--2--2----2--2--2--2---|
|----------------------------------------------------------|

|----------------------------------------------------------|
|----------------------------------0-------------0---------|
|--0--0--0--0----0--0--0--0-----0-----4--0----0-----4--0---|
|----------------------------------------------------------|

|----------------------------------------------------------|
|----------------------------------------------------------|
|--2--2--2--2----2--2--2--2-----2--2--2--2----2--2--2--2---|
|----------------------------------------------------------|

|----------------------------------------------------------|
|----------------------------------0-------------0---------|
|--0--0--0--0----0--0--0--0-----0-----4--0----0-----4--0---|
|----------------------------------------------------------|

|----------------------------------------------------------|
|----------------------------------------------------------|
|----------------0--0--0--0--0--0--0--0--0-----------------|
|--3--3-----3-----------------------------------3--3-----3-|

|-----------------------------|
|-----------------------------|
|-----------------------------|
|--2--2--2--2--2--2--2--2--2--|

|----------------------------------------------------------|
|----------------------------------------------------------|
|-------------------------------0--0--0--0----0--0--0--0---|
|--3--3--3--3----3--3--3--3--------------------------------|

|----------------------------------------------------------|
|----------------------------------------------------------|
|--2--2--2--2----2--2--2--2-----2--2--2--2----2--2--2--2---|
|----------------------------------------------------------|

|----------------------------------------------------------|
|----------------------------------------------------------|
|----------------------------------------------------------|
|--3--3--3--3----3--3--3--3-----3--3--3--3----3--3--3--3---|

|----------------------------------------------------------|
|----------------------------------------------------------|
|----------------------------------------------------------|
|--2--2--2--2---2--2--2--2-----2--2--2--2----2--2--2--2----|

|----------------------------------------------------------|
|----------------------------------------------------------|
|----------------------------------------------------------|
|--3--3--3--3----3--3--3--3-----3--3--3--3----3--3--3--3---|

|----------------------------------------------------------|
|--------------------------------------------0-------------|
|------------------------------------1----------4--0-------|
|--2--2--2--2---2--2--2--2--------2-----2-------------2----|

|----------------------------------------------------------|
|----------------------------------------------------------|
|----------------------------------------------------------|
|--3--3--3--3----3--3--3--3-----3--3--3--3----3--3--3--3---|

|----------------------------------------------------------|
|----------------------------------------------------------|
|----------------------------------------------------------|
|--2--2--2--2---2--2--2--2-----2--2--2--2----2--2--2--2----|

|----------------------------------------------------------|
|----------------------------------------------------------|
|----------------------------------------------------------|
|--3--3--3--3----3--3--3--3-----3--3--3--3----3--3--3--3---|

|----------------------------------------------------------|
|--------------------------------------------0-------------|
|------------------------------------1----------4--0-------|
|--2--2--2--2---2--2--2--2--------2-----2-------------2----|

|----------------------------------------------------------|
|----------------------------------------------------------|
|----------------------------------------------------------|
|--3--3--3--3----3--3--3--3-----3--3--3--3----3--3--3--3---|

|----------------------------------------------------------|
|----------------------------------------------------------|
|----------------------------------------------------------|
|--2--2--2--2---2--2--2--2-----2--2--2--2----2--2--2--2----|

|----------------------------------------------------------|
|----------------------------------------------------------|
|----------------------------------------------------------|
|--3--3--3--3----3--3--3--3-----3--3--3--3----3--3--3--3---|

|----------------------------------------|
|----------------------------------------|
|---------------0--0--0_____----0----0---|
|--2--2--2--2----------------2----2------|

Once you hit this, just go back to the beginning and you're hit the loop.

Underscores denote where to hold the note out.
Добавлено: 17.10.2013
Другие материалы по этой песне:
  • Аккорды и текст

Страница создана 17.10.2013
http://primanota.ru/misc-computer-games/f-zero-x-big-blue-chords.htm
Привет, Гость.
Предлагаем пройти революционный курс по гитаре.
Подарок от PrimaNota.Ru, забирай!