PrimaNota.ru - самый крупный в мире бесплатный архив песенных текстов, аккордов, табулатур и нот


Misc Computer Games - Earthbound - Your Name Please - бас-таба, видео

Регистрация Запомнить меня
Войти через:  Facebook Google Twitter Vk Yandex Mail.ru

Misc Computer Games - Earthbound - Your Name Please - бас-таба, видео

Печатать
Просмотров: 56
Here's that funky bass that greets you when naming your characters in Earthbound/Mother 2. 

"/" = slide

Drop D tuning.

Intro:
G|-----------------------------------------------------------------------| X2
D|-----------------------------------------------------------------------|
A|---------------------------------5-5/7---------------------------------|
D|--5--5--5-5--5--0-2-0-5--5--5-5---------5--5--5-5--5--0-2-0-5--5--5-5--|


Transition:
G|---------2----------|
D|------------3-------|
A|----2--5------2-----|
D|--5--------------3--|


Main Part:
G|----------------------------------------------------------------------------------------|
D|----------------------------------------------------------------------------------------|
A|---------------------------------5-5/7--------------------------------------------------|
D|--5--5--5-5--5--0-2-0-5--5--5-5---------5--5--5-5--5--0-2-0-5--5--5-5--2--2-3--3-4--4---|

G|----------------------------------------------------------------------------------------|
D|----------------------------------------------------------------------------------------|
A|---------------------------------5-5/7-----------------------------------4--4-3--3-1--0-|
D|--5--5--5-5--5--0-2-0-5--5--5-5---------5--5--5-5--5--0-2-0-5--5--5-5--5----------------|

G|----------------------------------------| X4
D|----------------------------------------|
A|---------------------------------5-5/7--|
D|--5--5--5-5--5--0-2-0-5--5--5-5---------|


*synth solo*


G|-----------------------------------------------------------------------------| X2
D|-----------------------------------------------------------------------------|
A|---------------------------------5-5/7--3--3--3-3--3----0---3--3--3-3--3--5--|
D|--5--5--5-5--5--0-2-0-5--5--5-5-----------------------5---5------------------|


Any issues, shoot me a message on my UG profile.
Добавлено: 08.12.2013
Другие материалы по этой песне:
  • Аккорды и текст

Страница создана 08.12.2013
http://primanota.ru/misc-computer-games/earthbound-your-name-please-chords.htm
Привет, Гость.
Предлагаем пройти революционный курс по гитаре.
Подарок от PrimaNota.Ru, забирай!