PrimaNota.ru - самый крупный в мире бесплатный архив песенных текстов, аккордов, табулатур и нот


Misc Computer Games - Dr Mario Theme - таба, бас-таба, видео

Регистрация Запомнить меня
Войти через:  Facebook Google Twitter Vk Yandex Mail.ru

Misc Computer Games - Dr Mario Theme - таба, бас-таба, видео

Печатать
Просмотров: 130
Dr. Mario Fever Theme
By: 

Intro

Rhythm
E|---------------------------------------------|
B|---------------------------------------------|
G|---------------------------------------------|
D|---------------------------------------------|
A|-5-5---5-5-------1-2-3-2-1-0-----1-2-3-2-1-0-|
E|-3-3---3-3---3-3-------------3-3-------------|
B|---------------------------------------------|

Bass
G|---------------------------------|
D|---------------------------------|
A|-----1-2-3-2-1-0-----1-2-3-2-1-0-|
E|-3-3-------------3-3-------------|
B|---------------------------------|

Part 1

Lead
E|---------------------------------------------------------------------------|
B|-11-12-11-12-10-------10-11-12-10-------11-12-11-12-10-------10------------|
G|----------------12-12-------------12-12----------------12-12----9-10-11-12-|
D|---------------------------------------------------------------------------|
A|---------------------------------------------------------------------------|
E|---------------------------------------------------------------------------|

E|--------------------------------------------------------------|
B|--------------------------------------------------------------|
G|-8-9-8-9-7---------8-9-7--------8-9-8-9-7---------------7-----|
D|-----------10-10-7-------10-10------------10-10-7---7-9--10-9-|
A|--------------------------------------------------9-----------|
E|--------------------------------------------------------------|

Harmony
E|----------------------------|
B|----------------------------|
G|----------------------------|
D|-5-5-5--7-7-7--8-8-8--9-9-9-|
A|----------------------------|
E|----------------------------|

Sound Effects
Coin     (Natural harmonics)                    1-Up
E|-----5----5---5-----5----5-|-------------------|
B|---5----5----5----5----5---|----------------20-|
G|---------------------------|-------21----19----|
D|---------------------------|----------22-------|
A|---------------------------|-19h22-------------|
E|---------------------------|-------------------|

Rhythm
E|------------------------------------------------------|
B|------------------------------------------------------|
G|------------------------------------------------------|
D|------------------------------------------------------|
A|-----1-2-3-3-4-5------1-2-3------1-2-3-3-4-5--2-3-4-5-|
E|-3-3--------------3-3--------3-3--------------2-3-4-5-|
B|----------------------------------------------0-1-2-3-|

E|----------------------------------------------|
B|----------------------------------------------|
G|----------------------------------------------|
D|------------------------------------------5-5-|
A|--------------------------------------2-5-5-5-|
E|-------0-1-1-2-3-------0-1-1-2-3--2-5-----3-3-|
B|-1-1-4-----------1-1-4------------------------|




Bass
G|------------------------------------------------|
D|------------------------------------------------|
A|------------------------------------------------|
E|-----6-7-8-8-9-10-----6-7-8-8-9-10-7--8--9--10--|
B|-8-8--------------8-8---------------------------|

G|----------------------------------------------|
D|----------------------------------------------|
A|--------------------------------------2-5-----|
E|-------0-1-1-2-3-------0-1-1-2-3--2-5-----3-3-|
B|-1-1-4-----------1-1-4------------------------|

Part 2

Lead
E|-----------------------------------------------------|
B|-----------------------------------------------------|
G|-8-9-7--------8-9-7--------8-9-8-9-7------------7----|
D|-------10-10--------10-10------------10-10-7-10---10-|
A|-----------------------------------------------------|
E|-----------------------------------------------------|

Rhythm
E|-
B|--------------------------------------------|
G|--------------------------------------------|
D|--------------------------------------------|
A|--------------------------------------5-5-3-|
E|-------0-1-------0-1-------0-1-1-2-3--3-3-3-|
B|-1-1-4-----1-1-4-----1-1-4----------------1-|

Bass
G|--------------------------------------------|
D|--------------------------------------------|
A|--------------------------------------------|
E|-------0-1-------0-1-------0-1-1-2-3--3-3---|
B|-1-1-4-----1-1-4-----1-1-4----------------1-|

Part 3

Lead                                                                    Harmony
E|----------------8--------------------7--8--|----------12-|
B|-----8-----10-8-----------8-----10-8-------|-13-12-15----|
G|-9-7--------------10--9-7------------------|-------------|
D|-------10-------------------10-------------|-------------|
A|-------------------------------------------|-------------|
E|-------------------------------------------|-------------|

Rhythm
E|----------------------------------------------|
B|----------------------------------------------|
G|----------------------------------------------|
D|-5--5--2--5--3-----------5--5--2--5--3--------|
A|-3--2--0--5--3--3--5--5--3--2--0--5--3--3--5--|
E|----------3--1--0--5--3-----------3--1--0--3--|
B|-------------------3--------------------------|

Bass
G|-------------------------|
D|-------------3--2--0-----|
A|-3--2--0-----------------|
E|----------3-----------3--|
B|-------------------------|

Part 4

Rhythm
E|-------------------------------------------------|
B|-------------------------------------------------|
G|-------------------------------------------------|
D|-------------------------------------------------|
A|---------------------------------6-5-4-3---------|
E|-------0-1-1-2-3-------0-1-1-2-3---------7-6-5-4-|
B|-1-1-4-----------1-1-4---------------------------|


Bass
G|-------------------------------------------------|
D|-------------------------------------------------|
A|---------------------------------6-5-4-3---------|
E|-------0-1-1-2-3-------0-1-1-2-3---------7-6-5-4-|
B|-1-1-4-----------1-1-4---------------------------|

Part 4

Rhythm
E|---------------------|
B|---------------------|
G|---------------------|
D|-5-4---5-4---5-4--6--|
A|-5-4---5-4---5-4--6--|
E|-3-2---3-2---3-2--4--|
B|---------------------|

Bass
G|---------------------|
D|---------------------|
A|---------------------|
E|-3-2---3-2---3-2--4--|
B|---------------------|

Interlude

Lead
E|----------------|
B|----------------|
G|-4-7---------7--|
D|-----5-7-5--(8)-|
A|-----------5----|
E|----------------|

Rhythm
E|---------------|
B|---------------|
G|---------------|
D|-5-3-2-------8-|
A|-5-3-2-6-3-2-8-|
E|-3-1-0-6-3-2-6-|
B|-------4-1-0---|

G|---------------|
D|---------------|
A|---------------|
E|-3-1-0-------6-|
B|-------4-1-0---|
Добавлено: 15.02.2016
Другие материалы по этой песне:
  • Аккорды и текст

Страница создана 20.08.2013
http://primanota.ru/misc-computer-games/dr-mario-theme-chords.htm
Привет, Гость.
Предлагаем пройти революционный курс по гитаре.
Подарок от PrimaNota.Ru, забирай!