PrimaNota.ru - самый крупный в мире бесплатный архив песенных текстов, аккордов, табулатур и нот


Misc Computer Games - Legend Of Zelda Majoras Mask - Stone Tower Temple - бас-таба, видео

Регистрация Запомнить меня
Войти через:  Facebook Google Twitter Vk Yandex Mail.ru

Misc Computer Games - Legend Of Zelda Majoras Mask - Stone Tower Temple - бас-таба, видео

Печатать
Просмотров: 100
--------------------------------------------------------------------------
                             Stone Tower Temple - Majora's Mask
--------------------------------------------------------------------------

Tabbed By : Billy M

Tuning: Standard

Eerie undertone:
G|-------------------------------------------------------|
D|-------------------------------------------------------|
A|-0~------1~------------0~------1~-----0~---------------|
E|---------------3~--------------------------------------|

Background Melody:
G|---9---9---9-10----9---9---9-7-------------------------|
D|-7---7---7-------7---7---7-----------------------------|
A|-------------------------------------------------------|
E|-------------------------------------------------------|

That's basically it for the background instruments.

| ~  let ring
===========================================================================
Добавлено: 08.10.2013
Другие материалы по этой песне:

Страница создана 08.10.2013
http://primanota.ru/misc-computer-games/legend-of-zelda-majoras-mask-stone-tower-temple-chords.htm
Привет, Гость.
Предлагаем пройти революционный курс по гитаре.
Подарок от PrimaNota.Ru, забирай!