PrimaNota.ru - самый крупный в мире бесплатный архив песенных текстов, аккордов, табулатур и нот


Misc Computer Games - Chrono Trigger - Determination - бас-таба, видео

Регистрация Запомнить меня
Войти через:  Facebook Google Twitter Vk Yandex Mail.ru

Misc Computer Games - Chrono Trigger - Determination - бас-таба, видео

Печатать
Просмотров: 142
Уроки эстрадного вокала в Санкт-Петербурге
Chrono Trigger - Determination

Tabbed by: XxThreeCheersxX
E-mail: burdickash@gmail.com

Tuning: Drop D

Part I
G|-------------------------------------------------------------|
D|-----6------6-6-----6------6-6-----3------3-3-----3------3-3-|
A|-------------------------------------------------------------|
D|-6-6---6--6-----6-6---6--6-----3-3---3--3-----3-3---3--3-----|

G|-------------------------------------------------------------|
D|-----2------2-2-----2------2-2-----1------1-1-----1------1-1-|
A|-------------------------------------------------------------|
D|-2-2---2--2-----2-2---2--2-----1-1---1--1-----1-1---1--1-----|

Part II
G|-------------------------------------------------------------|
D|-----6------6-6-----6------6-6-----3------3-3-----3------3-3-|
A|-------------------------------------------------------------| x 2
D|-6-6---6--6-----6-6---6--6-----3-3---3--3-----3-3---3--3-----|

G|-------------------------------------------------------------|
D|-----2------2-2-----2------2-2-----1------1-1-----1------1-1-|
A|-------------------------------------------------------------|
D|-2-2---2--2-----2-2---2--2-----1-1---1--1-----1-1---1--1-----|

G|-----4------4-4-----9------9-9---------------------------|
D|---------------------------------------------------------|
A|-2-2---2--2-----7-7---7--7-----6-6-6--------6-6-6--------|
D|---------------------------------------------------------|

Happy playing!

| /  slide up
| \  slide down
| h  hammer-on
| p  pull-off
| ~  vibrato
| +  harmonic
| x  Mute note
===============================================================================
Добавлено: 27.06.2015
Другие материалы по этой песне:
  • Аккорды и текст

Страница создана 27.06.2015
http://primanota.ru/misc-computer-games/chrono-trigger-determination-chords.htm
Привет, Гость.
Предлагаем пройти революционный курс по гитаре.
Подарок от PrimaNota.Ru, забирай!