PrimaNota.ru - самый крупный в мире бесплатный архив песенных текстов, аккордов, табулатур и нот


Misc Computer Games - Chrono Trigger - Chronos Theme - бас-таба, видео

Регистрация Запомнить меня
Войти через:  Facebook Google Twitter Vk Yandex Mail.ru

Misc Computer Games - Chrono Trigger - Chronos Theme - бас-таба, видео

Печатать
Просмотров: 82
Chrono Trigger - Chrono's Theme

Tabbed by: XxThreeCheersxX
E-mail: burdickash@gmail.com

Tuning: Standard

Part I
G|---------------------------------------------------------|
D|---------------------------------------------------------|
A|---------------------------------------------------------|
E|-5--5-5--5-5-5-5--5-5--5-5-5-2--2-2--2-2-2-2--2-2--2-2-2-|

G|---------------------------------------------------------|
D|---------------------------------------------------------|
A|---------------------------------------------------------|
E|-1--1-1--1-1-1-1--1-1--1-1-1-0--0-0--0-0-0-0--0-0--0-0-0-|

Part II x 2
G|---------------------------------------------------------|
D|---------------------------------------------------------|
A|---------------------------------------------------------| x 2
E|-5--5-5--5-5-5-5--5-5--5-5-5-2--2-2--2-2-2-2--2-2--2-2-2-|

G|---------------------------------------------------------|
D|---------------------------------------------------------|
A|---------------------------------------------------------|
E|-1--1-1--1-1-1-1--1-1--1-1-1-0--0-0--0-0-0-0--0-0--0-0-0-|

G|----------------------------------------------|
D|---------------3--3-3--3-3-3-222-------222----|
A|-3--3-3--3-3-3--------------------------------|
E|----------------------------------000---------|

Part III
G|-------------------------------------------------|
D|-------------------------------------------------|
A|-------------------------------------2~----------|
E|-3~----5~----7~------5~--3~----2~------------5~--|

G|-------------------------------------|
D|-------------------------------------|
A|-------------------------------------|
E|-3~----5~----7~------5~--3~----2~----|

Part IV
G|-----------------------------------------------------------|
D|-----------------------------------------------------------|
A|-3-----3------3-----3---3---3-5-----5------5-----5--8-7-5--| x 2
E|----3------------3--------3------5------------5------------|

Part V
G|------------------------------|
D|-2-2--2-2--2-2--2-2--2-2--2-2-|
A|------------------------------|
E|------------------------------|

Happy playing!

| /  slide up
| \  slide down
| h  hammer-on
| p  pull-off
| ~  vibrato
| +  harmonic
| x  Mute note
===============================================================================
Добавлено: 27.06.2015
Другие материалы по этой песне:
  • Аккорды и текст

Страница создана 27.06.2015
http://primanota.ru/misc-computer-games/chrono-trigger-chronos-theme-chords.htm
Привет, Гость.
Предлагаем пройти революционный курс по гитаре.
Подарок от PrimaNota.Ru, забирай!