PrimaNota.ru - самый крупный в мире бесплатный архив песенных текстов, аккордов, табулатур и нот


Misc Computer Games - Chrono Trigger - Battle 2 - бас-таба, видео

Регистрация Запомнить меня
Войти через:  Facebook Google Twitter Vk Yandex Mail.ru

Misc Computer Games - Chrono Trigger - Battle 2 - бас-таба, видео

Печатать
Просмотров: 95
Уроки эстрадного вокала в Санкт-Петербурге
Chrono Trigger - Battle 2

Tabbed by: XxThreeCheersxX
E-mail: burdickash@gmail.com

Tuning: Standard

Part I
G|--------------------------------------0------2---4---5---4---|
D|---2---0-2---0-2------0-2---0-2---3------3-----3---3---3---3-|
A|-----2-----2--------2-----2----------------3-----------------|
E|-0----------------0-------------1---1------------------------|

G|------------------------------------5------5------5-----------|
D|---2---0-2---0-2------0-2---0-2-------------------------------|
A|-----2-----2--------2-----2-----3-3----3-3----3-3----3-3-2-0--|
E|-0----------------0-------------------------------------------|

G|-2---0-2---0--------4-4----------5-4----------7-9-7----------------------------------|
D|---2-----2--------4-----4------5-----5------7----------7---5-7---5----3---3-3---3----|
A|-------------2--2---------3--3---------5--5--------------7-----7--------3-----3---2--|
E|----------------------------------------------------8--------------1-----------------|

G|-----4---2-4------4-4----|
D|---4---4--------4--------|
A|-2-----------2--------2--|
E|-------------------------|

Part II
G|-----------------------------------------------|
D|-2-----------2----------2-----------2----------|
A|---2----------------------2--------------0--0--| x 2
E|-----0-1--1-----0-3--3------0-1--1-----0-------|

Part III
G|----4---2-4-----4---2--5--4-2-----4---2-4-----4---4-2--------|
D|------4-----------4-----------------4-----------4-----5-4----|
A|-2-----------2-----------------2-----------2--------------5--|
E|-------------------------------------------------------------|

Repeat ad infinitum.
Happy playing!

| /  slide up
| \  slide down
| h  hammer-on
| p  pull-off
| ~  vibrato
| +  harmonic
| x  Mute note
===============================================================================
Добавлено: 27.06.2015
Другие материалы по этой песне:
  • Аккорды и текст

Страница создана 27.06.2015
http://primanota.ru/misc-computer-games/chrono-trigger-battle-2-chords.htm
Привет, Гость.
Предлагаем пройти революционный курс по гитаре.
Подарок от PrimaNota.Ru, забирай!