PrimaNota.ru - самый крупный в мире бесплатный архив песенных текстов, аккордов, табулатур и нот


Misc Computer Games - Chrono Trigger - Delightful Spekkio - бас-таба, видео

Регистрация Запомнить меня
Войти через:  Facebook Google Twitter Vk Yandex Mail.ru

Misc Computer Games - Chrono Trigger - Delightful Spekkio - бас-таба, видео

Печатать
Просмотров: 103
Уроки эстрадного вокала в Санкт-Петербурге
Chrono Trigger - Delightful Spekkio

Tabbed by: XxThreeCheersxX
E-mail: burdickash@gmail.com

Tuning: BEAD (or a five string in standard)

Intro

D|--------------|
A|-8-0--1--2h3--|
E|--------------|
B|--------------|

Part I
D|----------------------------------------------------------|
A|----------------------------------------------3-3----3----| x 2
E|-1----1----1------1----1------1----1----1-----------------|
B|----------------------------------------------------------|

Part II x 5
D|-----------------------------------------------------------|
A|------------------1-1----1---------------------3-3----3----|
E|-1----1----1------------------1----1----1------------------|
B|-----------------------------------------------------------|

D|-----------------------------------------------------------|
A|------------------1-1----1----3----3----3------------------|
E|-1----1----1-----------------------------------1-1----1----|
B|-----------------------------------------------------------|

Part III
D|---------------------------------------------------------|
A|--------------------1--2--3------------------------------|
E|-1----1----1------1----------1----1----1------1----------|
B|------------------------------------------------1--4--5--|

Happy playing!

| /  slide up
| \  slide down
| h  hammer-on
| p  pull-off
| ~  vibrato
| +  harmonic
| x  Mute note
===============================================================================
Добавлено: 27.06.2015
Другие материалы по этой песне:
  • Аккорды и текст

Страница создана 27.06.2015
http://primanota.ru/misc-computer-games/chrono-trigger-delightful-spekkio-chords.htm
Привет, Гость.
Предлагаем пройти революционный курс по гитаре.
Подарок от PrimaNota.Ru, забирай!