PrimaNota.ru - самый крупный в мире бесплатный архив песенных текстов, аккордов, табулатур и нот


Misc Computer Games - Chrono Trigger - Boss Battle 1 - бас-таба, видео

Регистрация Запомнить меня
Войти через:  Facebook Google Twitter Vk Yandex Mail.ru

Misc Computer Games - Chrono Trigger - Boss Battle 1 - бас-таба, видео

Печатать
Просмотров: 74
Уроки эстрадного вокала в Санкт-Петербурге
Chrono Trigger - Boss Battle 1

Tabbed by: XxThreeCheersxX
E-mail: burdickash@gmail.com

Tuning: Standard

Intro
G|-----------------------------------------------------------|
D|-----------------------------------------------------------|
A|-4---------------------------------------------------------|
E|-----5---0---4-2-4-3--3-3--3-3--3-3--3-3--3-3--3-3--3-3--3-|

Part I 
G|--------------------------------------------|       G|---------------------------------------|
D|------5-------------------5-----------------|       D|---5-------------------5---------------|
A|--------------------------------------------| x 3   A|---------------------------------------| x 1
E|-3--3----3-4--4-1--1-3--3----3-4--4-0-1-2-3-|       E|-3----3-4--4-1--1-3--3----3-4--4-3-4-5-|

Part II (key change)
G|--------------------------------------------|       G|---------------------------------------|
D|------8-------------------8-----------------|       D|---8-------------------8---------------|
A|--------------------------------------------| x 3   A|---------------------------------------| x 1
E|-6--6----6-7--7-4--4-6--6----6-7--7-3-4-5-6-|       E|-6----6-7--7-4--4-6--6----6-7--7-6-5-4-|

Part III
G|-----------------------------------------------------------|
D|----------5----------------------------4-------------------|
A|------3-5---------------0----------2-4---------------------|
E|-3--3-------4--3--4--0-----3--2--2-------3--2--3--0--4--2--|

G|-------------------------------------------|
D|-------------------------------------------|
A|-1--0--------3--3x----3--3x----3-3-3-3x----|
E|-------4--3--------------------------------|

Happy playing!

| /  slide up
| \  slide down
| h  hammer-on
| p  pull-off
| ~  vibrato
| +  harmonic
| x  Mute note
===============================================================================
Добавлено: 27.06.2015
Другие материалы по этой песне:
  • Аккорды и текст

Страница создана 27.06.2015
http://primanota.ru/misc-computer-games/chrono-trigger-boss-battle-1-chords.htm
Привет, Гость.
Предлагаем пройти революционный курс по гитаре.
Подарок от PrimaNota.Ru, забирай!