PrimaNota.ru - самый крупный в мире бесплатный архив песенных текстов, аккордов, табулатур и нот


Misc Computer Games - Chrono Trigger - Boss Battle 2 - бас-таба, видео

Регистрация Запомнить меня
Войти через:  Facebook Google Twitter Vk Yandex Mail.ru

Misc Computer Games - Chrono Trigger - Boss Battle 2 - бас-таба, видео

Печатать
Просмотров: 87
Chrono Trigger - Boss Battle 2

Tabbed by: XxThreeCheersxX
E-mail: burdickash@gmail.com

Tuning: Standard

Part I 
G|-------------------------------------------------------------------------|
D|-------------------1---1--1-0---0--0-------------------------------------|
A|-0---0--0-3---3--3-------------------4---4--4-3---3--3-2---2--2-1---1--1-| x 2
E|-------------------------------------------------------------------------|

Part II
G|---------------------------------------------------------|
D|---------------------------------------------------------|
A|---------------------------------------------------------|
E|-3-3-3--3-3-3--3-3-3--3-3-3--3-3-3--3-3-3--3-3-3--3-3-3--|
                                                                   x 2
G|---------------------------------------------------------|
D|---------------------------------------------------------|
A|---------------------------------------------------------|
E|-3-3-3--3-3-3--3-3-3--3-3-3--4-4-4--4-4-4--4-4-4--4-4-4--|

G|---------------------------------------------------------|
D|---------------------------------------------------------|
A|-4-4-4--4-4-4--4-4-4--4-4-4--4-4-4--4-4-4--4-4-4--4-4-4--|
E|---------------------------------------------------------|

G|---------------------------------------------------------|
D|---------------------------------------------------------|
A|-3-3-3--3-3-3--3-3-3--3-3-3--3-3-3--3-3-3--3-3-3--3-3-3--|
E|---------------------------------------------------------|

G|---------------------------------------------------------|
D|---------------------------------------------------------|
A|-4-4-4--4-4-4--4-4-4--4-4-4--4-4-4--4-4-4--4-4-4--4-4-4--|
E|---------------------------------------------------------|

Part III
G|----------------------------|
D|----------------------------|
A|----------------------------| x 4
E|-3--3-4-5-6--3-4-5-6-5-4-3--|

G|-------------|
D|-------------|
A|-6--5--3--2--|
E|-------------|

Part IV (Key Change)
G|---------------------------------------------------------|
D|-2-2-2--2-2-2--2-2-2--2-2-2--2-2-2--2-2-2--2-2-2--2-2-2--|
A|---------------------------------------------------------|
E|---------------------------------------------------------|
                                                                   x 2
G|---------------------------------------------------------|
D|-2-2-2--2-2-2--2-2-2--2-2-2--3-3-3--3-3-3--3-3-3--3-3-3--|
A|---------------------------------------------------------|
E|---------------------------------------------------------|

G|-3-3-3--3-3-3--3-3-3--3-3-3--3-3-3--3-3-3--3-3-3--3-3-3--|
D|---------------------------------------------------------|
A|---------------------------------------------------------|
E|---------------------------------------------------------|

G|-2-2-2--2-2-2--2-2-2--2-2-2--2-2-2--2-2-2--2-2-2--2-2-2--|
D|---------------------------------------------------------|
A|---------------------------------------------------------|
E|---------------------------------------------------------|

G|-3-3-3--3-3-3--3-3-3--3-3-3--3-3-3--3-3-3--3-3-3--3-3-3--|
D|---------------------------------------------------------|
A|---------------------------------------------------------|
E|---------------------------------------------------------|

Part V
G|--------------------3--------|
D|------2--------1--1---1-1----|
A|-0--0---0-0------------------|
E|-----------------------------|

G|---------------------------------------------------------|
D|-0-0-0--0-0-0--0-0-0--0-0-0--0-0-0--0-0-0--0-0-0--0-0-0--|
A|---------------------------------------------------------| x 2
E|---------------------------------------------------------|

Then repeat back to Part I.

Happy playing!



| /  slide up
| \  slide down
| h  hammer-on
| p  pull-off
| ~  vibrato
| +  harmonic
| x  Mute note
===============================================================================
Добавлено: 27.06.2015
Другие материалы по этой песне:
  • Аккорды и текст

Страница создана 27.06.2015
http://primanota.ru/misc-computer-games/chrono-trigger-boss-battle-2-chords.htm
Привет, Гость.
Предлагаем пройти революционный курс по гитаре.
Подарок от PrimaNota.Ru, забирай!