PrimaNota.ru - самый крупный в мире бесплатный архив песенных текстов, аккордов, табулатур и нот


Misc Computer Games - Banjo Kazooie - Mumbos Hut - бас-таба, видео

Регистрация Запомнить меня
Войти через:  Facebook Google Twitter Vk Yandex Mail.ru

Misc Computer Games - Banjo Kazooie - Mumbos Hut - бас-таба, видео

Печатать
Просмотров: 129
Banjo Kazooie - Mumbo's Hut

Tabbed by: Ashy (XxThreeCheersxX)
E-mail: burdickash@gmail.com

Tuning: Standard

Come in at 0:12
G|------------------------------------------------------------|
D|--------------------------------------------3-2-------------|
A|-2-3----2-3----4-5-----5-53-2--------------------3----3---0-| 
E|--------------------5---------5-3----2-3----------------3---|

G|--------------------------------------------------------------|
D|--------------------------------------------3-2---------------|
A|-2-3----2-3----4-5-----5-53-2--------------------3----3-2-0---| 
E|--------------------5---------5-3----2-3--------------------3-|

G|----------------------------------------------------------|
D|----------------------------------------------------------|
A|----0--3---------0--3-----------0--3--------5---5---0-2-2-|
E|-1--------3-0-1--------------1--------3--3--------3-------|

G|----------------------------------------------------|
D|--------------------------------------------3-2-----|
A|-2-3----2-3----4-5-----5-53-2--------------------3--| 
E|--------------------5---------5-3----2-3------------|

Happy playing!

| /  slide up
| \  slide down
| h  hammer-on
| p  pull-off
| ~  vibrato
| +  harmonic
| x  Mute note
===============================================================================
Добавлено: 28.08.2015
Другие материалы по этой песне:
  • Аккорды и текст

Страница создана 28.08.2015
http://primanota.ru/misc-computer-games/banjo-kazooie-mumbos-hut-chords.htm
Привет, Гость.
Предлагаем пройти революционный курс по гитаре.
Подарок от PrimaNota.Ru, забирай!