PrimaNota.ru - самый крупный в мире бесплатный архив песенных текстов, аккордов, табулатур и нот


Misc Computer Games - Bully Theme - бас-таба, видео

Регистрация Запомнить меня
Войти через:  Facebook Google Twitter Vk Yandex Mail.ru

Misc Computer Games - Bully Theme - бас-таба, видео

Печатать
Просмотров: 147
Standard tuning

Key
/ = slide up
\ = slide down

1st part

G |------------------------|------------------------|
D |------------------------|------------------------|
A |7-----7-----7-----7-----|3-----3-----5-----5-----|
E |---7-----7-----7-----7--|---3-----3-----5-----5--|
   
G |------------------------|------------------------|
D |------------------------|------------------------|
A |7-----7-----7-----7-----|3-----3-----3-----5-----|
E |---7-----7-----7-----7--|---3-----3-----3-----5--|

G |------------------------|------------------------|
D |------------------------|------------------------|
A |7-----7-----7-----7-----|3-----3-----5-----5--6--|
E |---7-----7-----7-----7--|---3-----3-----5--------|

G |--------------------------|--------------------------|
D |--------------------------|--------------------------|
A |7-----7-----7-----7-6-5-4-|3-----3-----3-----3-4-5-6-|
E |---7-----7-----7----------|---3-----3-----3----------|

G |--------------------------|------------------------|
D |--------------------------|------------------------|
A |7-----7-----7-----7-6-5-4-|3-----3-----5-----5--6--|
E |---7-----7-----7----------|---3-----3-----5--------|

G |--------------------------|--------------------------|
D |--------------------------|--------------------------|
A |7-----7-----7-----7-6-5-4-|3-----3-----3-----3-4-5-6-|
E |---7-----7-----7----------|---3-----3-----3----------|


2nd part

G |----------------------------|----------------------------|
D |----------------------------|----------------------------|
A |7-7--7-7-7--7-7-7--7-7-7--7-|3-3--3-3-3--3-3-3--3-3-3--5-|
E |----------------------------|----------------------------|

G |----------------------------|----------------------------|
D |----------------------------|----------------------------|
A |7-7--7-7-7--7-7-7--7-7-7--7-|3-3--3-3-3--3-5-5--5-5-5--7-|
E |----------------------------|----------------------------|

G |-------------------|------5--4--2--0-2-0--|
D |------5--7--5------|----------------------|
A |7--7-----------7\--|3--3------------------|
E |-------------------|----------------------|

G |-------------------|------5---------7------|
D |------5--7--5------|------------------0-1--|
A |7--7-----------7\--|3--3----3-5-5----------|
E |-------------------|-----------------------|

G |-------------------|------5--4--2--0-2-0--|
D |------5--7--5------|----------------------|
A |7--7-----------7\--|3--3------------------|
E |-------------------|----------------------|

G |-------------------|------5---------7------|
D |------5--7--5------|------------------0-1--|
A |7--7-----------7\--|3--3----3-5-3-5--------|
E |-------------------|-----------------------|


3rd part (only played once!)

G |9-9-9-9-9-9-9-9\-|5-5-5-5-5-5-5-5/-|
D |-----------------|-----------------|
A |-----------------|-----------------|
E |-----------------|-----------------|

G |9-9-9-9-9-9-9-9\-|5-5-5-5-7-7-7-7-|
D |-----------------|----------------|
A |-----------------|----------------|
E |-----------------|----------------|

G |9-9-9-9-9-9-9-9\-|5-5-5-5-5-5-5-5/-|
D |-----------------|-----------------|
A |-----------------|-----------------|
E |-----------------|-----------------|

G |9-9-9-9-9-9-9-9/-|5-5-5-5-7-7-7-7-|
D |-----------------|----------------|
A |-----------------|----------------|
E |-----------------|----------------|


4th part

G |-------------------|------------------|
D |-------------------|------------------|
A |7-7--7-7--7-7--7-7-|-3333333355555555-|
E |-------------------|------------------|

G |-------------------|------------------|
D |-------------------|------------------|
A |7-7--7-7--7-7--7-7-|-3333333355555555-|
E |-------------------|------------------|

G |-------------------|------------------|
D |-------------------|------------------|
A |7-7--7-7--7-7--7-7-|-3333333355555555-|
E |-------------------|------------------|

G |-------------------|------------------|
D |-------------------|------------------|
A |7-7--7-7--7-7--7-7-|-3333333355555555-|
E |-------------------|------------------|

G |-----------------------|---8-----8-----8-----8-|
D |---7-----7-----7-----7-|-----------------------|
A |0-----0-----0-----0----|6-----6-----6-----6----|
E |-----------------------|-----------------------|

G |-----------------------|------------------------|
D |---7-----7-----7-----7-|---9-----9-----9--------|
A |0-----0-----0-----0----|------------------------|
E |-----------------------|7-----7-----7---7-6-5-3-|


Ending (04:25)

G |----------------------|------------------------|
D |----------------------|------------------------|
A |7----------3----------|/7----------3-----2-----|
E |----------------------|------------------------|

G |----------------------|------------------------|
D |----------------------|------------------------|
A |/7---------3----------|/7----------3-----2-----|
E |----------------------|------------------------|


Order
1st part (00:00)
2nd part (00:30)
3rd part (01:09)
4th part (01:29)
1st part (01:58)
2nd part (02:28)
1st part (03:08)
4th part (03:27)
1st part (03:56)
Ending   (04:25)
Добавлено: 28.08.2015
Другие материалы по этой песне:
  • Аккорды и текст

Страница создана 28.08.2015
http://primanota.ru/misc-computer-games/bully-theme-chords.htm
Привет, Гость.
Предлагаем пройти революционный курс по гитаре.
Подарок от PrimaNota.Ru, забирай!