PrimaNota.ru - самый крупный в мире бесплатный архив песенных текстов, аккордов, табулатур и нот


Misc Computer Games - Destiny - The Traveler - таба, видео

Регистрация Запомнить меня
Войти через:  Facebook Google Twitter Vk Yandex Mail.ru

Misc Computer Games - Destiny - The Traveler - таба, видео

Печатать
Просмотров: 85
Intro to the traveler from Destiny the video game :)

(Lead)

e|----------------------------------------------------------------------------------------|
B|------------------------------------------7---7--------7-9-7--10-9-7-5------------------|
G|--8----6--9------8----9-8-6-----9-8-6-8-9---9----9-8-9-----------------8----6--9--------|
D|----------------------------------------------------------------------------------------|
A|----------------------------------------------------------------------------------------|
E|----------------------------------------------------------------------------------------|




|---------------------------------|
|---------------------------------|
|--8----9--8--6-------------6--8--|
|--------------------------------6|
|---------------------------------|
|---------------------------------|
Добавлено: 07.03.2016
Другие материалы по этой песне:
  • Аккорды и текст

Страница создана 07.03.2016
http://primanota.ru/misc-computer-games/destiny-traveler-chords.htm
Привет, Гость.
Предлагаем пройти революционный курс по гитаре.
Подарок от PrimaNota.Ru, забирай!