PrimaNota.ru - самый крупный в мире бесплатный архив песенных текстов, аккордов, табулатур и нот


Misc Computer Games - Disco Zoo Theme - таба, видео

Регистрация Запомнить меня
Войти через:  Facebook Google Twitter Vk Yandex Mail.ru

Misc Computer Games - Disco Zoo Theme - таба, видео

Печатать
Просмотров: 74
-------------------------------------------------------------------------------
                               DISCO ZOO THEME - Band Name
-------------------------------------------------------------------------------
Tabbed by: wbalston

Tuning: standard

From Nimblebit's game Disco Zoo. Several of their games have these awesome guitar bits with no artist credited.
This is the best I can figure it out. Listen to the song for the timing: 
https://www.youtube.com/watch?v=O3v1mto_vhU

e|------------------------------------------2h3--3---------------------------|
B|-------3-----3--------3-----3-------3----------------3-----3---------------|
G|----0-----0--------0-----0-------2-----2----------0-----0------------------|
D|------------------------------0--------------------------------------------|
A|-3-------------------------------------------------------------------------|
E|----------------3------------------------------0---------------------------|

e|------------------------------------------2h3--0---------------------------|
B|-------3-----3--------3-----3-------3----------------3-----3---------------|
G|----0-----0--------0-----0-------2-----2----------0-----0------------------|
D|------------------------------0--------------------------------------------|
A|-3-------------------------------------------------------------------------|
E|----------------3------------------------------0---------------------------|


Other guitar verse part

e|-------------------------9---------------------------9---------------------|
B|-8---------7----8---10--------8---------7----8-----------------------------|
G|----9-7--------------------------9-7---------------------------------------|
D|---------------------------------------------------------------------------|
A|---------------------------------------------------------------------------|
E|---------------------------------------------------------------------------|

Still working on getting the other sections down.

Добавлено: 07.03.2016
Другие материалы по этой песне:
  • Аккорды и текст

Страница создана 07.03.2016
http://primanota.ru/misc-computer-games/disco-zoo-theme-chords.htm
Привет, Гость.
Предлагаем пройти революционный курс по гитаре.
Подарок от PrimaNota.Ru, забирай!