PrimaNota.ru - самый крупный в мире бесплатный архив песенных текстов, аккордов, табулатур и нот


Joe Pass - Lil Darlin - таба, видео

Регистрация Запомнить меня
Войти через:  Facebook Google Twitter Vk Yandex Mail.ru

Joe Pass - Lil Darlin - таба, видео

Печатать
Просмотров: 95
Авторы музыки: Neal Hefti

Joe Pass - Lil' Darlin
(Transcriber: Jeroen Moons)


(0:00)
|--5--------------------------------3---------10-8---------------------5---------
|--5----5---3---1-------1-1--3--/5--------8--------8---7--8----7-6---------------
|--5----5---5---2---2---2-2--1--/4--------8----------8-7-------7-6---------------
|--4----4---4---3---3---3-3-----/5----5---8------------6-------6-5-----------5-4-
|-------------------------------/3--------8------------7----7--------------------
|-------5-------3-------3----------------------------------------5---5---5-------


---5----------------------------------3--5-----3---------------------5--8-5------
---5----5---3---1-------1-1--3---4/5--------5--------4---3---------6-5----5------
---5----5---5---2---2---2-2--1---3/4-----------------4---3-------7---7----6------
--------4---4---3---3---3-3--------------------------3---2---7/8-----------------
---------------------------------3-----------------0-4---3-----------------------
--------5-------3-------3----------------------------------------------------0---

(0:22)
--------------------------5--8-------------------------------------5-------------
---3----2-----------------5---------3---3--2----5-6-/8-8//////--7----6--5--------
---2------7--8/7-5--------7---------2---2----7---------7//////--6----6--5--------
---3------6------5--5-----8---------3--------6---------6//////--5----5--4--------
--------------------5----------------------------------7//////--6----6--5--------
---1------6------8---------------0--1--------6-----------------------------------

(0:34)
---5-------------------------------------------------------------5--8-----5------
---5---5--3--1-----1--3-5--3----------5--8--7-6-5--8---------------------5-------
---5---5--5--2---2-2--4-5--5-------5-----9---------7---7---5/6----------5--------
---4---4--4--4---4---------3--6/7------------------6---6---4/5---------4---------
---------------------------------------------------7-----------------------------
-------------------------------------------------------7---4/5-------------------

------------------------------3------10-8--------10--------8--------5------------
---5---3---1-----1--1--3---5------8-------8---7-------7-6------6-5----------5----
---5---5---2---2-2--2--1---4------8---------8-7-------7-6------6-5----------5----
---4---4---3---3-3--3------5------7-----------6-------6-5------5-4--------4------
---------------------------3------8-----------7-------7-6------6-5---------------
---5-------3-----3---------------------------------------------------------------

(0:58)
----------------------------------------6--10---5\----------5--------------------
---3--1---------1---1-3---5----------6----------5\---3--2------------------------
---5--2---2-----2---2-1---3---6--7---7----------7\---2--3------------------------
---4--3---3-----3---3-----5---7--8-------------------3--2------------------------
--------------------------3------------------------------------------------------
--------3-----3------------------------------------------------------------------

-----------------------------5---8-5--8------------------------------------------
-----------------------------5--------8----3---2--3---5-6--8//////8//////--------
---7---7--6-7---8p7--5-------6--------7----2------1--------7//////6//////--------
---7---7----6---6----5---5---8-------------3------3--------6//////6//////--------
---8---8----8---8--------5------------------------1--------7//////7//////--------
--(6)------(6)---------------------------1---------------------------------------

(1:21)
---5-----------------------------------------------------------------------------
---5---5---3---1-------0---1-3-1-------------------------------------------------
---5---5---5---2---2---1-------0-------------------------------------------------
---4---4---4---3---3---3-------2-------------------------------------------------
---------------------------------------------------------------------------------
---------------------------------------------------------------------------------

(1:26)
---8-------8-----8-----8-----8--------------------------------12-13-12-8---------
---4/5-----6-----7-----8-----6h7p6-----------------5----------10-11-10-8-10-8----
---------5-----5-----5-----5-------8--5--------------5----5---11-12-11-8---------
-----------------------------------------5------4-------7-----10-11-10-7---------
-------------------------------------------7--8----------------------------------
---------------------------------------------------------------------------------

-----------------------------------------------10h11-----10----------------------
---5-----------------------------8-----8---10---------13----10-/13-10------------
-----5------------------5---6/7------7-6-------------------------------7h8p7-----
-------5-------5---6/7------5/6------6-5-------------------------------------10--
---------8-6/7-----5/6-----------------------------------------------------------
---------------------------------------------------------------------------------

(1:45)
-------------------------7/8------------------------------------------------------
----------------------8-------11--8---------------------------------------------4-
---7-----------5--4------------------10--8--------------------------------------4-
-----7-/10-7---4--3-------------------------10--5--3----------5--7-----5--------3-
------------------------------------------------------3--/7---------7---------4---
--------------(4)(3)--------------------------------------------------------------

---------------------/5--8--5---------10---8-/11---8--10---8----------------------
---4--3----------3-6-/5-----5---------------------------------10/11--8--8---6---8-
---4--3-------3------/7-----6---5-7---7----5-/8----5--7----5----------------------
---3--2---4/5---------------------7---------------------------7/8----5--5---3---5-
------3---------------------------8-----------------------------------------------
----------------------------------------------------------------------------------

(2:00)
---------------------------------------------------------------------5------------
---8--/5-----------------------5--8---6--/13--9--8--6--5///8---------6------6-5---
----------5--5--3--5--5-----5------------------------------7---7-/6--6----6---5---
---5--/2-----------------7-----2--5---3--/10--6--5--3--2---6---6-/5-----------4---
----------3--3--1--3--3-----3------------------------------7------0---------------
-------------------------5--------------------------------------------------------

----------10-11-12-----10---------------------------------------------------------
---10--13----------12-----13-------12-10----------------------------------5-------
-----------------------------12-13-------9----------7-------------------5---4-----
--------------------------------------------10\9--7------5h7p5----4---7--------7--
-------------------------------------------------------7--------7-----------------
----------------------------------------------------------------------------------

(2:14)
----------------------------------------------------------------------------------
---------------------------------------------5--8--8--7--7--6--6--5---8-----------
---------------5--8/9--8/9--8/9------------5--------------------------7---7---5/6-
---5-4-----5-7-------------------5--5----7----------------------------6-------4/5-
-------/8-------------------------------------------------------------7-------0---
----------------------------------------------------------------------------------

---5---------5------------------------------3--3--------8--8---10--------6--------
-------------5---5---3-1--------1--1-3---/5----5---9/10----8------8--8-----7--6---
--------5----5---5---5-2---2--2-2--2-1---/4----4---8-------8------7--7-----7--6---
--------4----4---4---4-3---3--3-3--3---------------------------------6------------
--------5--------------------------------3-----3---8-------8---------7-----6--6---
----------------------------------------------------------------------------------

(2:33)
------5-----------------------------------3--5--3----13--10--------------------5--
---5--------5--3---2-1------1----3---4-5-----4--3----11--10--13---10-6---------5--
---5--------5--5---3-2--2---2----2---3-4-----4--3----10--10--10---7--7--7--6---6--
---4------4----4---4-3--3---3--3-------------3-------12--12--12---8--8--8--7---8--
---5-----------------------------------3------------------------------------------
----------------------------3-----------------------------------------------------

--------------------------------5---11---8----------------------------------------
---3---3--2--3---4--3---1-------5---10---8---3---2--3---5-6-8//////7///6///-------
---2---------1---1--1---0---0---7---10---7---2------1-------7//////6///6///-------
---3---------3---3--3-------0---8------------3------3-------6//////5///5///-------
-------------1-------------------------------------(3)------7//////6///6///-------
---1------------------------------------------------------------------------------

(2:59)
---5-----------------------------------------10--------8--------5--------------5--
---5---5---3---1-------0---1-3--1---------------------------------------------5---
---5---5---5---2---2---0--------0---9---9-8-------8-7------7-6--------6------5----
---4---4---4---3---3---3--------2---8---8-7-------7-6------6-5------5---4---4-----
----------------------------------------------------------------------------------
----------------------------------------------------------------------------------

----------------------------------------8-------10---------8---8-----5-------5----
-----5---3-----1--------0--1-3---1----------------------8----8---8-7----7-6----6--
----5----5----2----2---0--------0----9-----9-8------8--7-----7---7-6----6-6----6--
---4-----4---3----3---3--------2-----8-----8-7------7-6------6-----5----5-5----5--
----------------------------------------------------------------------------------
----------------------------------------------------------------------------------

(3:25)
-------5----------------------------------------------------------------------2--|
---5---5------5----3--0-1-------0--1-3-1-----------------4-----------4-------4---|
---5---5------5----5--0-2---2---1------2------8----5----------5-----4-------4----|
---4---4----4----4------3---3---3------2------7----6-----5----4----3-------5-----|
--------------------------------------------------------------------------3------|
--------------------------------------------7----6-----5----4-----3--------------|
Добавлено: 22.03.2016
Вам также может быть интересно:
Другие материалы по этой песне:
  • Аккорды и текст

Страница создана 22.03.2016
http://primanota.ru/joe-pass/lil-darlin-chords.htm
Привет, Гость.
Предлагаем пройти революционный курс по гитаре.
Подарок от PrimaNota.Ru, забирай!